PrimaNota.ru - самый крупный в мире бесплатный архив песенных текстов, аккордов, табулатур и нот


Paul Westerberg - Love You In The Fall - текст песни, таба, видео

Регистрация Запомнить меня
Войти через:  Facebook Google Twitter Vk Yandex Mail.ru

Paul Westerberg - Love You In The Fall - текст песни, таба, видео

Печатать
Просмотров: 107
Уроки эстрадного вокала в Санкт-Петербурге
I love you in the fall...

e|-000-0-2--xxx----5-5-5-5--|
B|-000-2-2--xxx----5-2-5-2--|
G|-222-2-2--xxx----2-2-2-2--|
D|-222-2-2--xxx----0-0-0-0--|
A|-000-0-0--xxx----0-0-0-0--|
E|--------------------------|

I wait for always...

e|-2--2--2--2----|
B|-2--3--2--4----|
G|-2--2--2--2----|
D|-4--0--4--4----|
A|-4-----4--2----|
E|-2-----2-------|

I love you in the fall...

e|-000-0-2--xxx----5-5-5-5--|
B|-000-2-2--xxx----5-2-5-2--|
G|-222-2-2--xxx----2-2-2-2--|
D|-222-2-2--xxx----0-0-0-0--|
A|-000-0-0--xxx----0-0-0-0--|
E|--------------------------|

Seasons change before me...

e|-2--2--0---2--2---------|
B|-2--3--2---2--3---------|
G|-0--2--2---0--2--4------|
D|-0--0--2---0--0--4------|
A|-2-----0---2-----2------|
E|-3---------3------------|

I love you in the fall

e|-000-0-2--xxx----5-5-5-5--|
B|-000-2-2--xxx----5-2-5-2--|
G|-222-2-2--xxx----2-2-2-2--|
D|-222-2-2--xxx----0-0-0-0--|
A|-000-0-0--xxx----0-0-0-0--|
E|--------------------------|

I wait for always...

e|-2--2--2--2----|
B|-2--3--2--4----|
G|-2--2--2--2----|
D|-4--0--4--4----|
A|-4-----4--2----|
E|-2-----2-------|

I love you in the fall...

e|-000-0-2--xxx----5-5-5-5--|
B|-000-2-2--xxx----5-2-5-2--|
G|-222-2-2--xxx----2-2-2-2--|
D|-222-2-2--xxx----0-0-0-0--|
A|-000-0-0--xxx----0-0-0-0--|
E|--------------------------|

Seasons change before me...

                                                      When the crimsom leaves appear...
                                
                                     x4              
e|-2--2--0---2--2---|        e|-2---4---5---7-|          e|-5-------------|
B|-2--3--2---2--3---|        B|-2---4---5---7-|          B|-7-------------|
G|-0--2--2---0--2---|  ---   G|-2---4---6---8-|  ---     G|-6------4------|
D|-0--0--2---0--0---|        D|-4---6---7---9-|          D|-7------4------|
A|-2-----0---2------|        A|-4---6---7---9-|          A|-5------2------|
E|-3---------3------|        E|-2---4---5---7-|          E|---------------|

I love you forever...

e|-000-0-2--xxx----5-5-5-5--|
B|-000-2-2--xxx----5-2-5-2--|
G|-222-2-2--xxx----2-2-2-2--|
D|-222-2-2--xxx----0-0-0-0--|
A|-000-0-0--xxx----0-0-0-0--|
E|--------------------------|

fades away :)




  
Добавлено: 12.04.2016
Другие материалы по этой песне:
  • Аккорды и текст

Страница создана 09.09.2014
http://primanota.ru/paul-westerberg/love-you-in-fall-chords.htm
Привет, Гость.
Предлагаем пройти революционный курс по гитаре.
Подарок от PrimaNota.Ru, забирай!