PrimaNota.ru - самый крупный в мире бесплатный архив песенных текстов, аккордов, табулатур и нот


Paul Weller - Up In Suzes' Room - текст песни, таба, видео

Регистрация Запомнить меня
Войти через:  Facebook Google Twitter Vk Yandex Mail.ru

Paul Weller - Up In Suzes' Room - текст песни, таба, видео

Печатать
Просмотров: 121
Уроки эстрадного вокала в Санкт-Петербурге
Artist: Paul Weller
Song: Up In Suzes' Room (solo)
Album: Heavy Soul
 
Just a small file. I got frustrated trying to find this
excellent little solo when it wasn't shown in
the various other  interpretations of the song.
The whole song is available else where.
 
Tabbed by: Chris Johnstone (hyphen15@hotmail.com)
    Suggestions/Comments welcome!
 
This is my first submission and I'm no expert on the guitar so it's
just my own interpretation, it may not be 100% so bare with me :P
 
e|------------------------------------
B|-14-14-14----------14-12-12-12h14---
G|-------------13-16------------------
D|------------------------------------
A|------------------------------------
E|------------------------------------
 
e|------------------------------------
B|-------14-17-14------14-12----------
G|-13-16----------13------------------
D|------------------------------------
A|------------------------------------
E|------------------------------------
 
e|------------------------------------
B|-------14-12---------------------14-
G|-13-16-------13-11---11-13-14-16----
D|------------------------------------
A|------------------------------------
E|------------------------------------
 
The solo sounds a lot better on an electric guitar and some notes
need to be left to ring out.
* When hammering onto 14 you can also
  slide and it produces much the same noise.
* The 14 at the end may also be a 18 on the G-string.

     
Добавлено: 01.09.2013
Другие материалы по этой песне:
  • Аккорды и текст

Страница создана 17.03.2012
http://primanota.ru/paul-weller/up-in-suzes-room-chords.htm
Привет, Гость.
Предлагаем пройти революционный курс по гитаре.
Подарок от PrimaNota.Ru, забирай!