PrimaNota.ru - самый крупный в мире бесплатный архив песенных текстов, аккордов, табулатур и нот


Paul Weller - Porcelain Gods - аккорды и текст, таба, видео

Регистрация Запомнить меня
Войти через:  Facebook Google Twitter Vk Yandex Mail.ru

Paul Weller - Porcelain Gods - аккорды и текст, таба, видео

Печатать
Просмотров: 240
Porcelain Gods
Paul Weller
		   Porcelain Gods

                     By
                 Paul Weller


Heres one from Paul's brilliant
new album "Stanley Road"

INTRO:

     N.C
E|-----------------------|-----------------------|
B|-----------------------|-----------------------|
G|-----------------0-----|-----------------------|
D|----------0---------2--|----------0-------2h4--|
A|-----2/4-----2/4-------|-----2/4-----2h4-------|
E|--0--------------------|--0--------------------|

E|--------------------|------------------|
B|--------------------|------------------|
G|-------------0------|------------------|
D|----------0-----2---|----------0-------|
A|-----2/4------------|-----2/4-----4~~--|
E|--0-----------------|--0---------------|

This is used all through the song,  there are afew
changes during the song but if you listen to it
you'll soon get them :)


VERSE 1:

[Play with intro tab]

Beware false prophets,  Take a stand
My fortune cookie,  Craked up in my hand
More advice to fill up my head

E|---------------|
B|-----------2---|
G|--5-4-2-0--2---|
D|-----------2---|
A|-----------0---|
E|---------------|

[A]More empty words from the living [G]dead
[A]Who seek to explain what can really be [G]said
How [D7M  ]diappointed I was to [Bm]turn out after all
Just a [D]Porcelain God thet [F#m]shatters when it falls


VERSE 2:

Too much will kill you, Too little ain't enough
You shout my name but, I call your bluff

Most who see me, See me not for real
We fake and fall, Play games 'til dawn

E|---------------|
B|-----------2---|
G|--5-4-2-0--2---|
D|-----------2---|
A|-----------0---|
E|---------------|

[A]But I can see what you can [G]see
[A]And I hate too what you hate in [G]me
How [D7M  ]disappointed I am to find me [Bm]part of no plan
Just a [D]Porcelain God that [F#m]shatters when it falls
Yeah, when it falls


SOLO:


VERSE 3:

I shake it off, And start again
Don't loose control, I Tell myself
Life can take many Things away

E|---------------|
B|-----------2---|
G|--5-4-2-0--2---|
D|-----------2---|
A|-----------0---|
E|---------------|

[A]Some people will try and take it [G]all
[A]They'll pick off the pieces as they watch you [G]crawl
And how [D7M  ]disappointed I was to [Bm]turn out after all
Just a [D]Porcelain God that [F#m]shatters when it falls
That shatters when it falls...

The intro tab is played a couple of times and then
it moves on into "I Walk On Guilded Splinters"

Tabbed By:

--
   __________________   _____________________________________________
  /                  \ /                                             \
 |   Andrew Mulhern   |         I am Today, You are Tomorrow          |
 |   **************   |  I Light the Way, While You Drown the Sorrow  |
  \__________________/ \_____________________________________________/
                                  \ mulhern@zetnet.co.uk /
       /~~\_/~>         ,,,        **********************
      { [====|||||||||||:::}
       \__/~\_>         '''     
Добавлено: 12.06.2013
Другие материалы по этой песне:
  • Аккорды и текст

Страница создана 29.02.2012
http://primanota.ru/paul-weller/porcelain-gods-chords.htm
Привет, Гость.
Предлагаем пройти революционный курс по гитаре.
Подарок от PrimaNota.Ru, забирай!