PrimaNota.ru - самый крупный в мире бесплатный архив песенных текстов, аккордов, табулатур и нот


Paul Weller - Into Tomorrow - текст песни, таба, видео

Регистрация Запомнить меня
Войти через:  Facebook Google Twitter Vk Yandex Mail.ru

Paul Weller - Into Tomorrow - текст песни, таба, видео

Печатать
Просмотров: 150
Into Tomorrow - Paul Weller

Intro tab:

E-----------------------------------------------------------------------
B-----------------------------------------------------------------------
G---------0----------------0----------------0----------------0----------
D------2-----2--0h2-----2-----2--0h2-----2-----2--0h2-----2-----2--0----
A---0----------------0----------------0----------------0----------------
E-----------------------------------------------------------------------


Am7

Am7
Into the mists of time and space

Where we have no say over date and place

Don't get embarrassed if it happens a lot,

That you don't know how you started or where you're gonna stop

C                            D7sus4
And if at times it seems insane - all the tears in searching;
Am                           D7sus4
Turning all your joy to pain - in pursuit of learning;
Fmaj7                       G6
Buy a dream and hideaway - can't escape the sorrow;
Am9                       B7sus4     E        Am7
Your mojo will have no effect - as we head into tomorrow


E-----------------------------------------------------------------------
B-----------------------------------------------------------------------
G---------0----------------0----------------0----------------0----------
D------2-----2--0h2-----2-----2--0h2-----2-----2--0h2-----2-----2--0----
A---0----------------0----------------0----------------0----------------
E-----------------------------------------------------------------------


Am7
Round and round like a twisted wheel

Spinning in attempt to find the feel

Find the path that will help us find
D7sus4                  Am
A feeling of control over lives and minds

C                            D7sus4
And if at times it seems insane - all the tears in searching;
Am                           D7sus4
Turning all your joy to pain - in pursuit of learning;
Fmaj7                       G6
Buy a dream and hideaway - can't escape the sorrow;
Am9                       B7sus4     E        Am7
Your mojo will have no effect - as we head into tomorrow

Am
Into the stars and always up
Fmaj7
Drinking from a broken cup
Am
Whose golden gleam is fading fast
Bm11           E7  Am7
Praying that it has not passed
Am
Into tomorrow


Long Live the God of Mod


Ashley James Blanchard
Добавлено: 25.05.2012
Другие материалы по этой песне:
  • Аккорды и текст

Страница создана 04.03.2012
http://primanota.ru/paul-weller/into-tomorrow-chords.htm
Привет, Гость.
Предлагаем пройти революционный курс по гитаре.
Подарок от PrimaNota.Ru, забирай!