PrimaNota.ru - самый крупный в мире бесплатный архив песенных текстов, аккордов, табулатур и нот


Paul Stewart - Glass Skull - таба, видео

Регистрация Запомнить меня
Войти через:  Facebook Google Twitter Vk Yandex Mail.ru

Paul Stewart - Glass Skull - таба, видео

Печатать
Просмотров: 52
Hey everyone. This is my very first tab and I finally feel like a contributing member of society.

So, I'm not going to tab the strumming because it's super easy and I feel like I might
make it more confusing if I attempt to, so just ear it out. **IMPORTANT** Paul Stewart
does some strumming on the upper strings between chords that I did not tab, so listen 
for that. Chord names should be pretty accurate.

Standard Tuning

  Gmaj7            C/G
E|--x------x--x--x--x--|
B|--x------x--x--x--x--|
G|--x------x--x--x--x--|
D|--4------4--2--0--2--|
A|--5------5--5--5--3--|
E|--3------3--3--3--3--|
  1st time (0:00-0:50)
  2nd time (1:21-1:49)
  3rd time (2:48-3:20)


   Gmaj7  Cmaj7    F/C     C/G
E|--x-------x-------x-------x--|
B|--x-------x-------x-------x--|
G|--x-------4-------2-------x--| (play twice, 2nd time play last chord twice)
D|--4-------5-------3-------2--|
A|--5-------3-------3-------3--|
E|--3-------x-------x-------3--|
  1st time(0:50-1:20)
  2nd time(1:49-2:19)

    B7    C/G
E|--x------x--|
B|--x------x--|
G|--2------x--|
D|--1------2--| (hold last chord)
A|--2------3--|
E|--x------3--|
  (2:20-2:27)

  Gmaj7 C/G Gmaj7 C/G Gmaj7 C/G  Am      Gmaj7 C/G
E|--x----x----x----x----x----x----x--------x----x--|
B|--x----x----x----x----x----x----1--------x----x--|
G|--x----x----x----x----x----x----2--------x----x--| (then repeat beginning)
D|--4----2----4----2----4----2----2--------4----2--|
A|--5----3----5----3----5----3----0--------5----3--|
E|--3----3----3----3----3----3----x--------3----3--|
  (2:28-2:48)





Piano part at very end:

E|---------------------------------------------------------------------|
B|--------5--------------------5-----------------5---------------------|
G|--7--7-----4--2-----0--7--7-----4--0-----7--7-----4-----4--5--4------|(0)
D|---------------------------------------------------------------------|
A|---------------------------------------------------------------------|
E|---------------------------------------------------------------------|
Добавлено: 27.06.2013
Другие материалы по этой песне:
  • Аккорды и текст

Страница создана 27.06.2013
http://primanota.ru/paul-stewart/glass-skull-chords.htm
Привет, Гость.
Предлагаем пройти революционный курс по гитаре.
Подарок от PrimaNota.Ru, забирай!