PrimaNota.ru - самый крупный в мире бесплатный архив песенных текстов, аккордов, табулатур и нот


Paul Simon - The 59 Th Street Bridge Song - таба, видео

Регистрация Запомнить меня
Войти через:  Facebook Google Twitter Vk Yandex Mail.ru

Paul Simon - The 59 Th Street Bridge Song - таба, видео

Печатать
Просмотров: 118
                        The 59 th street bridge song                  


  By Mario Sergio



          C    G             Am7          G            
     Q    Q    E  E  Q       E   E  E  E  E  E  E  E   
E||-------0---------------|---------------------------|
B||------------3----------|--1---------0--------------|
G||---------------0-------|------0-----------0-----0--|
D||------------------0----|---------0-----------0-----|
A||-------3----2----------|--0------------------------|
E||-----------------------|---------------3-----------|


  C           G              Am7          G            
  E  E  E  E  E  E  E  E     E   E  E  E  E  E  E  E   
--------0-----------------|---------------------------|
--------------3-----------|--1---------0--------------|
-----0-----0-----0-----0--|------0-----------0-----0--|
--------------------0-----|---------0-----------0-----|
--3-----3-----2-----------|--0------------------------|
--------------------------|---------------3-----------|


     Slow down ...                                              
  C                     G             Am7          G            
                                                      v  ^      
  E  E             Q    E  E  Q       E   E  E  E  E  E  E  E   
-------------------0---------------|------------------3--3-----|
------------------------3----------|--1---------0-----0--0--0--|
-----0---------------------0-------|------0--------------0-----|
------------------------------0----|---------0-----------------|
--3----------------3----2----------|--0------------------------|
-----------------------------------|---------------3-----------|


  C          G             Am7          G             C          G           
  E  E  Q    E  E  Q       E   E  E  E  Q    E  E     E  E  Q    E  E  Q     
--------0---------------|--------------------------|--------0---------------|
-------------3----------|--1---------0-------------|-------------3----------|
-----0----------0-------|------0----------------0--|-----0----------0-------|
-------------------0----|---------0----------------|-------------------0----|
--3-----3----2----------|--0-----------------------|--3-----3----2----------|
------------------------|---------------3----3-----|------------------------|


  Am7          G              C          G             Am7          G           
  E   E  E  E  E  E  E  E     E  E  Q    E  E  Q       E   E  E  E  Q    E  E   
---------------------3-----|--------0---------------|--------------------------|
--1---------0--------------|-------------3----------|--1---------0-------------|
------0-----------0-----0--|-----0----------0-------|------0----------------0--|
---------0-----------------|-------------------0----|---------0----------------|
--0------------------------|--3-----3----2----------|--0-----------------------|
---------------3-----3-----|------------------------|---------------3----3-----|


  C          G              Am7          G                                   
  E  E  Q    E  E  E  E     E   E  E  E  E  E  Q       Q    Q    Q    E  E   
--------0----------------|--------------------------|-----------------------|
-------------3-----------|--1---------0-------------|-----------------------|
-----0----------0-----0--|------0-----------0-------|-----------------------|
-------------------0-----|---------0----------------|--2---------0-------0--|
--3-----3----2-----------|--0-----------------------|-------3---------2-----|
-------------------------|---------------3-----3----|-----------------------|


                         C          G              Am7          G            
                                                                   v  ^      
  Q    Q    Q    Q       E  E  Q    E  E  E  E     E   E  E  E  E  E  E  E   
----------------------|--------0----------------|------------------3--3-----|
----------------------|-------------3-----------|--1---------0-----0--0-----|
----------------------|-----0----------0-----0--|------0--------------0--0--|
----------------------|-------------------0-----|---------0-----------------|
--0-------------------|--3-----3----2-----------|--0------------------------|
-------3----3----3----|-------------------------|---------------3-----------|


  C          G             Am7          G             C          G           
  E  E  Q    E  E  Q       E   E  E  E  Q    E  E     E  E  Q    E  E  Q     
--------0---------------|--------------------------|--------0---------------|
-------------3----------|--1---------0-------------|-------------3----------|
-----0----------0-------|------0----------------0--|-----0----------0-------|
-------------------0----|---------0----------------|-------------------0----|
--3-----3----2----------|--0-----------------------|--3-----3----2----------|
------------------------|---------------3----3-----|------------------------|


  Am7          G             C         G             Am7          G           
  E   E  E  E  Q    E  E     Q    Q    E  E  Q       E   E  E  E  Q    E  E   
--------------------3-----|-------0---------------|--------------------3-----|
--1---------0-------------|------------3----------|--1---------0-------------|
------0----------------0--|---------------0-------|------0----------------0--|
---------0----------------|------------------0----|---------0----------------|
--0-----------------------|--3----3----2----------|--0-----------------------|
---------------3----3-----|-----------------------|---------------3----3-----|


  C         G             Am7          G             C          G           
  Q    Q    E  E  Q       E   E  E  E  Q    E  E     E  E  Q    E  E  Q     
-------0---------------|--------------------3-----|--------0---------------|
------------3----------|--1---------0-------------|-------------3----------|
---------------0-------|------0----------------0--|-----0----------0-------|
------------------0----|---------0----------------|-------------------0----|
--3----3----2----------|--0-----------------------|--3-----3----2----------|
-----------------------|---------------3----3-----|------------------------|


  Am7          G              C         G            Am7       G           
                  v  ^                                                     
  E   E  E  E  E  E  E  E     Q    Q    Q    Q       Q    Q    Q    E  E   
------------------3--3-----|-------0--------------|-----------------3-----|
--1---------0-----0--0--0--|----------------------|--1--------------------|
------0--------------0-----|----------------------|--------------------0--|
---------0-----------------|----------------------|-----------------------|
--0------------------------|--3----3----2---------|--0--------------------|
---------------3-----------|-----------------3----|-------3----3----3-----|


  C          G              Am7          G             C          G           
  E  E  Q    E  E  E  E     E   E  E  E  Q    E  E     E  E  Q    E  E  Q     
--------0----------------|--------------------------|--------0---------------|
-------------3-----------|--1---------0-------------|-------------3----------|
-----0----------0-----0--|------0----------------0--|-----0----------0-------|
-------------------0-----|---------0----------------|-------------------0----|
--3-----3----2-----------|--0-----------------------|--3-----3----2----------|
-------------------------|---------------3----3-----|------------------------|


  Am7          G              C          G             Am7          G           
  E   E  E  E  E  E  E  E     E  E  Q    E  E  Q       E   E  E  E  Q    E  E   
---------------------3-----|--------0---------------|--------------------------|
--1---------0--------------|-------------3----------|--1---------0-------------|
------0-----------0-----0--|-----0----------0-------|------0----------------0--|
---------0-----------------|-------------------0----|---------0----------------|
--0------------------------|--3-----3----2----------|--0-----------------------|
---------------3-----3-----|------------------------|---------------3----3-----|


  C         G                                   C         G           
  ^    ^    ^    ^       ^    ^    ^                                  
  Q    Q    Q    Q       Q    Q    Q    Q       Q    Q    E  E  Q     
--0---------3---------|----------------------|-------0---------------|
--1----1----0----3----|--1----1----0---------|------------3----------|
--0----0----0----0----|--0----0----0---------|---------------0-------|
--2----2----0----0----|--2----2----0---------|------------------0----|
--3---------2---------|--0---------2---------|--3----3----2----------|
----------------------|------------3----3----|-----------------------|


  Am7          G             C          G              Am7              G      
  E   E  E  E  Q    E  E     E  E  Q    E  E  E  E     E   E  Q    Q    E  E   
--------------------------|--------0----------------|-------------------3-----|
--1---------0-------------|-------------3-----------|--1-----------0-------0--|
------0----------------0--|-----0----------0-----0--|------0------------------|
---------0----------------|-------------------0-----|---------0---------------|
--0-----------------------|--3-----3----2-----------|--0----------------------|
---------------3----3-----|-------------------------|--------------3----3--3--|


  C          G             Am7              G        C          G           
  E  E  Q    E  E  Q       E   E  Q    Q    E  E     E  E  Q    E  E  Q     
--------0---------------|-------------------3-----|--------0---------------|
-------------3----------|--1-----------0-------0--|-------------3----------|
-----0----------0-------|------0------------------|-----0----------0-------|
-------------------0----|---------0---------------|-------------------0----|
--3-----3----2----------|--0----------------------|--3-----3----2----------|
------------------------|--------------3----3--3--|------------------------|


  Am        G           
  Q    Q    Q    Q      
----------------------||
--1---------0----L----||
----------------------||
-------0--------------||
--0-------------------||
------------3---------||
Добавлено: 23.03.2012
Другие материалы по этой песне:

Страница создана 23.03.2012
http://primanota.ru/paul-simon/the-59-th-street-bridge-song-chords.htm
Привет, Гость.
Предлагаем пройти революционный курс по гитаре.
Подарок от PrimaNota.Ru, забирай!