PrimaNota.ru - самый крупный в мире бесплатный архив песенных текстов, аккордов, табулатур и нот


Paul Simon - Rene And Georgette - аккорды и текст, таба, видео

Регистрация Запомнить меня
Войти через:  Facebook Google Twitter Vk Yandex Mail.ru

Paul Simon - Rene And Georgette - аккорды и текст, таба, видео

Печатать
Просмотров: 138
Rene And Georgette
Paul Simon
6/8 , . . , . . , . . , . . , . . , . . , . . , . .
||--------------------|-------------------|-------------|-------------|
||--------------------|-------------------|-------------|-------------|
||--------------------|-------------------|-------------|-------------|
||--2--------0--------|-------------------|-------2-----|-------2-----|
||--------------------|-2--------0--------|-------------|-------------|
||--------------------|-------------------|-0-----------|-0-----------|
Rene and Georgette Magritte with their dog after the war

, . . , . . , . . , . . , . . , . . , . . , . .
|-------------------|-------------------|--------------|--------------|
|-------------------|-------------------|-------2------|-------2------|
|-------------------|-------------------|-----1---1----|-----1---1----|
|-2--------1--------|-0-----------------|-----------2--|---2-------2--|
|-------------------|----------2--------|-0------------|-0------------|
|-------------------|-------------------|--------------|--------------|
Return to their hotel suite and they unlock the door

, . . , . . , . . , . . , . . , . .
|-------------------|-------------------|-------------------|
|----------2--------|----------2--------|----------2--------|
|-------2-----2-----|-------4-----4-----|-------2-----2-----|
|----4-----------4--|----2-----------2--|----2-----------2--|
|-------------------|-------------------|-0-----------------|
|-2-----------------|-4-----------------|-------------------|
Easily losing their evening clothes they dance by the light of the

, . . , . . 4/4 , . , . , . , . 6/8
|-------------------|----------------------------------|
|----------4--------|--4h5p4-----------4---------------|
|-------4-----4-----|--4-----------4-----------4-------|
|----4-----------4--|--4h6p4---7-----------6-------4---|
|-0-----------------|----------------------------------|
|-------------------|----------------------------------|
moon To the

6/8 . . , . . , . . , . . , . . , . .
|-------------------|-------------------|-------------------|
|----------0--------|----------0--------|----------0--------|
|-------1-----------|-------1-----1-----|-------2-----2-----|
|----2--------2--1--|----2--------------|----2-----------2--|
|-------------------|-4--------------2--|-0-----------------|
|-0-----------------|-------------------|-------------------|
Penguins, the Moon Glows, the Oreoles, the

, . . , . . , . . , . . , . . , . .
|-------------------|-------------------|-------------------|
|----------0--------|-------0--------0--|-------0--------0--|
|-------2-----2-----|----1--------1-----|----1--------1-----|
|----1-----------1--|----------1--------|-------------------|
|-2-----------------|-------------------|-4--------2--------|
|-------------------|-0-----------------|-------------------|
Five Satins, the deep forbidden music they've been

, . . , . . , . . , . . , . . , . .
|-------------------|-------------------|-------------------|
|----------2--------|----------2--------|----------2--------|
|-------1-----1-----|-------1-----1-----|-------2-----2-----|
|----2-----------2--|----2-----------2--|----4-----------4--|
|-0-----------------|-0-----------------|-------------------|
|-------------------|-------------------|-2-----------------|
longing for Rene and Georgette

, . . , . . , . . , . . , . . , . .
|-------------------|----------0--------|----------0--------||
|----------4--------|-------0-----0-----|-------0-----0-----||
|-------4-----4-----|----1-----------1--|----1-----------1--||
|----4-----------4--|-------------------|-------------------||
|-2-----------------|-------------------|-------------------||
|-------------------|-0-----------------|-0-----------------||
Magritte with their dog after the war

, . . , . . , . . , . . , . . , . . , . . , . .
||-------------------|-------------------|-------7-----|-------------|
||-------------------|-------------------|---------7-9-|-------------|
||-------------------|-------------------|-------------|-9-----------|
||-2--------0--------|-------------------|-------------|-------------|
||-------------------|-2--------0--------|-------7-----|-------7-----|
||-------------------|-------------------|-0-----------|-0-----------|
Rene and Georgette Magritte with their dog after the war Were

, . . , . . , . . , . . , . . , . . , . . , . .
|-------------------|-------------------|--------------|-5------------|
|-------------------|-------------------|-------2------|---5-2--------|
|-------------------|-------------------|-----1---1----|-------2------|
|-2--------1--------|-0-----------------|---2-------2--|---------2----|
|-------------------|----------2--------|-0------------|-0---------4--|
|-------------------|-------------------|--------------|--------------|
strolling down Christopher Street when they stopped in a mens store With

, . . , . . , . . , . . , . . , . .
|-------------------|-------------------|-------------------|
|----------2--------|----------2--------|----------2--------|
|-------2-----2-----|-------4-----4-----|-------2-----2-----|
|----4-----------4--|----2-----------2--|----2-----------2--|
|-------------------|-------------------|-0-----------------|
|-2-----------------|-4-----------------|-------------------|
all of the mannequins dressed in the style that brought tears to their

, . . , . . 4/4 , . , . , . , . 6/8
|-------------------|----------------------------------|
|----------4--------|--4h5p4-----------4---------------|
|-------4-----4-----|--4-----------4-----------4-------|
|----4-----------4--|--4h6p4---7-----------6-------4---|
|-0-----------------|----------------------------------|
|-------------------|----------------------------------|
immigrant eyes Just like the

6/8 . . , . . , . . , . . , . . , . .
|-------------------|-------------------|-------------------|
|----------0--------|-------------0-----|----------0--------|
|-------1-----------|-------1-----------|-------2-----2-----|
|----2--------2--1--|----2-----2--------|----2-----------2--|
|-------------------|-4--------------2--|-0-----------------|
|-0-----------------|-------------------|-------------------|
Penguins, the Moon Glows, the Oreoles, the

, . . , . . , . . , . . , . . , . .
|-------------------|-------------------|-------------------|
|----------0--------|-------0--------0--|-------0--------0--|
|-------2-----------|----1--------1-----|----1--------1-----|
|----1--------------|----------1--------|-------------------|
|-2-----------0-----|-------------------|-4--------2--------|
|----------------2--|-0-----------------|-------------------|
Five Satins, the easy stream of laughter flowing

, . . , . . , . . , . . , . . , . .
|-------------------|-------------------|-------------------|
|----------2--------|----------2--------|----------2--------|
|-------1-----1-----|-------1-----1-----|-------2-----2-----|
|----2-----------2--|----2-----------2--|----4-----------4--|
|-0-----------------|-0-----------------|-------------------|
|-------------------|-------------------|-2-----------------|
through the air Rene and Georgette

, . . , . . , . . , . . , . . , . .
|-------------------|----------0--------|-------------------||
|----------4--------|-------0-----0-----|-------------------||
|-------4-----4-----|----1-----------1--|-------------------||
|----4-----------4--|-------------------|-2--------------2--||
|-2-----------------|-------------------|----2--------2-----||
|-------------------|-0-----------------|-------0--0--------||
Magritte with their dog apres la guere

, . . , . . , . . , . . , . . , . .
||-------------------|-------------------|-------------------|
||----------2--------|-------4--------2--|----------2--------|
||-------3-----3-----|----4--------3-----|-------2-----2-----|
||----4-----------4--|-------------------|----2-----------2--|
||-------------------|-2--------1--------|-0-----------------|
||-2-----------------|-------------------|-------------------|
Side by side they fell asleep

, . . , . . , . . , . . , . . , . .
|-------------------|-------------------|-------------------|
|----------5--------|----------2--------|----------5--------|
|-------4-----4-----|-------2-----2-----|-------4-----4-----|
|----6-----------6--|----2-----------2--|----6-----------6--|
|-------------------|-0-----------------|-------------------|
|-4-----------------|-------------------|-4-----------------|
Decades gliding by like indians,

, . . , . . , . . , . . , . . , . .
|----------2--------|----------4--------|-------------------|
|-------2-----2-----|----5--------5-----|----------2--------|
|----2-----------2--|-------6--------6--|-------2-----2-----|
|-4-----------------|-------------------|----2-----------2--|
|-------------------|-4-----------------|-0-----------------|
|-------------------|-------------------|-------------------|
Time is cheap When they

, . . , . . , . . , . . , . . , . .
|-------------------|-------------------|----------0--------|
|----------5--------|----------2--------|-------0-----0-----|
|-------4-----4-----|-------2-----2-----|----1-----------1--|
|----6-----------6--|----4-----------4--|-------------------|
|-------------------|-------------------|-------------------|
|-4-----------------|-2-----------------|-0-----------------|
wake up they will find

, . . , . . , . . , . . , . . , . .
|-------------------|-------------------|-------------------|
|-------2-----------|-4--------2--------|-2-----------------|
|----3--------------|-4--------3--------|-2-----------------|
|-------------------|-4-----------------|-4-----------------|
|----------------1--|-2--------1--------|-0-----------------|
|-2--------2--4-----|-------------------|-------------------|
All their personal belongings have inter-

, . . , . . , . . , . .
|-------------------|-------------------||
|-------------------|-2-----------------||
|-4-----------------|-2-----------------||
|-6-----------------|-4-----------------||
|-6-----------------|-4-----------------||
|-4-----------------|-2-----------------||
twined Woah oh oh oh...

, . . , . . , . . , . . , . . , . . , . . , . .
||-------------------|-------------------|-------------|-------------|
||-------------------|-------------------|-------------|-------------|
||-------------------|-------------------|-------------|-------------|
||-2--------0--------|-------------------|-------2-----|-------2-----|
||-------------------|-2--------0--------|-------------|-------------|
||-------------------|-------------------|-0-----------|-0-----------|
Rene and Georgette Magritte with their dog after the war Were

, . . , . . , . . , . . , . . , . . , . . , . .
|-------------------|-------------------|--------------|--------------|
|-------------------|-------------------|-------2------|-------2------|
|-------------------|-------------------|---------1----|-----1---1----|
|-2--------1--------|-0-----------------|-----------2--|---2-------2--|
|-------------------|----------2--------|-0------------|-0------------|
|-------------------|-------------------|--------------|--------------|
dining with power elite when they looked in their bedroom drawer And

, . . , . . , . . , . . , . . , . .
|-------------------|-------------------|-------------------|
|----------2--------|----------2--------|----------2--------|
|-------2-----2-----|-------4-----4-----|-------2-----2-----|
|----4-----------4--|----2-----------2--|----2-----------2--|
|-------------------|-------------------|-0-----------------|
|-2-----------------|-4-----------------|-------------------|
what do you think they have hidden away in the cabinet cold of their

, . . , . . , . . , . .
|-------------------------|-------------0-----------|
|-------------2-----------|---------2---------------|
|---------3-------3-------|-----3-------------------|
|-----2---------------2---|-------------------------|
|-1-----------------------|-1-----------------------|
|-------------------------|-------------------------|
hearts? The

, . . , . . , . . , . . , . . , . .
|-------------------|-2-----------------|-0-----------------|
|-4-----------------|-4-----------------|-0-----------------|
|-4-----------------|-3-----------------|-1-----------------|
|-6-----------------|-1-----------------|-2-----------------|
|-6-----------------|-1-----------------|-2-----------------|
|-4-----------------|-------------------|-0-----------------|
Penguins, the Moon Glows, the Oreoles, and the

, . . , . . , . . , . . , . . , . .
|-------------------|-------------------|-------------------|
|-4-----------------|-------0--------0--|-------0--------0--|
|-4-----------------|----1--------1-----|----1--------1-----|
|-4-----------------|-2--------1--------|-------------------|
|-2-----------------|-------------------|-4--------2--------|
|-------------------|-------------------|-------------------|
Five Satins, for now and ever after as it

, . . , . . , . . , . . , . . , . .
|-------------------|-------------------|-------------------|
|----------2--------|----------2--------|----------2--------|
|-------1-----1-----|-------1-----1-----|-------2-----2-----|
|----2-----------2--|----2-----------2--|----4-----------4--|
|-0-----------------|-------------------|-------------------|
|-------------------|-2-----------------|-2-----------------|
was before Rene and Georgette

, . . , . . , . . , . . , . . , . .
|-------------------|-------------------|----0-----2-----0--|
|-------------------|-------------------|-------2-----4-----|
|-------------------|-------------------|-------------------|
|-------------------|-------------------|-------------------|
|-2-----------------|-------------------|-4-----------------|
|-------------------|-------------------|-------------------|
Magritte with their dog after the war

, . . , . . , . . , . . , . . , . .
|----0-----4-----0--|----------0--------|----------0--------|
|-------2-----4-----|----2--------2-----|-------0-----0-----|
|-------------------|-------2--------2--|----1-----------1--|
|-------------------|-------------------|-------------------|
|-2-----------------|-------------------|-------------------|
|-------------------|-2-----------------|-0-----------------|


, . . , . . , . . , . . , . . , . .
|----0-----2-----0--|----0-----4-----0--|----------0--------|
|-------2-----4-----|-------2-----4-----|-------2-----2-----|
|-------------------|-------------------|----2-----------2--|
|-------------------|-------------------|-------------------|
|-4-----------------|-2-----------------|-0-----------------|
|-------------------|-------------------|-------------------|


, . . , . .
|-------------------||
|-------------------||
|----------1--------|| Fine.
|-------2-----------||
|----2--------------||
|-0-----------------||
Добавлено: 09.11.2013
Другие материалы по этой песне:
  • Аккорды и текст

Страница создана 18.03.2012
http://primanota.ru/paul-simon/rene-and-georgette-chords.htm
Привет, Гость.
Предлагаем пройти революционный курс по гитаре.
Подарок от PrimaNota.Ru, забирай!