PrimaNota.ru - самый крупный в мире бесплатный архив песенных текстов, аккордов, табулатур и нот


Paul Simon - Los Sonidos Del Silencio - таба, видео

Регистрация Запомнить меня
Войти через:  Facebook Google Twitter Vk Yandex Mail.ru

Paul Simon - Los Sonidos Del Silencio - таба, видео

Печатать
Просмотров: 110


)---------0-0-------------------------0-0-3-3-5--5-3------0-0-3-3-5--5-3-/
)-----1-1-----3-------0-0-3-3-1---1-1-----------------1-1----------------/
)-2-2-------------0-0----------------------------------------------------/
)------------------------------------------------------------------------/
)------------------------------------------------------------------------/
)------------------------------------------------------------------------/

)-----5-5--5-7-8-8--7-5-3--3-5-3-0--------3-------------/
)-1-1-------------------------------1-1-1----0--1-------/
)--------------------------------------------------2----(
)-------------------------------------------------------/
)-------------------------------------------------------/
)-------------------------------------------------------/
                                        x2



)---------------------------------------------------/
)---------------------------------------------------/
)----------------------------------------0-0-2--2-0-/
)---------2-2-0----------0-0---------2-2------------/
)-0-0-3-3------------2-2-----3---3-3----------------/
)----------------3-3--------------------------------/

)-------------------------------------------------------------------------/
)--------------------------------0-1-1--0---------------------------------/
)---------0-0-2--2-0------2-2--2----------2-0--0-2-0-----------0----------(
)-----2-2--------------------------------------------2--------------------/
)-3-3-----------------3-3--------------------------------3-3-3----2--3--0-/
)-------------------------------------------------------------------------/
                                     x2



)---------0-0-------------------------0-0-3-3-5--5-3------0-0-3-3-5--5-3-/
)-----1-1-----3-------0-0-3-3-1---1-1-----------------1-1----------------/
)-2-2-------------0-0----------------------------------------------------/
)------------------------------------------------------------------------/
)------------------------------------------------------------------------/
)------------------------------------------------------------------------/

)-----5-5--5-7-8-8--7-5-3--3-5-3-0--------3-------------/
)-1-1-------------------------------1-1-1----0--1-------/
)--------------------------------------------------2----/
)-------------------------------------------------------/
)-------------------------------------------------------/
)-------------------------------------------------------/
Добавлено: 25.08.2015
Вам также может быть интересно:
Другие материалы по этой песне:
  • Аккорды и текст

Страница создана 25.08.2015
http://primanota.ru/paul-simon/los-sonidos-del-silencio-chords.htm
Привет, Гость.
Предлагаем пройти революционный курс по гитаре.
Подарок от PrimaNota.Ru, забирай!