PrimaNota.ru - самый крупный в мире бесплатный архив песенных текстов, аккордов, табулатур и нот


Paul Simon - Killer Wants To Go To College - текст песни, таба, видео

Регистрация Запомнить меня
Войти через:  Facebook Google Twitter Vk Yandex Mail.ru

Paul Simon - Killer Wants To Go To College - текст песни, таба, видео

Печатать
Просмотров: 201
Уроки эстрадного вокала в Санкт-Петербурге
-------------------------------------------------------------------------------
                             killer wants to go to college - paul simon
-------------------------------------------------------------------------------
Tabbed by: eli harari (eli.harari.98)
E-mail:elihar2000@gmail.com

Tuning:standard
intro+verse:
e|---------------------------------------------------------------------|
B|---------------------------------------------------------------------|
G|---------------------------------------------------------------  -2--|
D|-----------------------------------------  5-7-4-2---------2-4-2-4---|
A|--2-4-2-4-2-4-2-4-----4-5-4----5-4-5-4--5-------- 4-5-2--0-0-0-0-----|
E|-0-0-0-0-0-0-0-0--2--2-2-2----2-2-2-2--5-----------------------------|
chorus:
e|---------------------------|
B|---------------------------|
G|---------------------------|
D|-4-6-6-7-6-7-6-7--7-9-7-9--|
A|----4-4-4-4-4-4--5-5-5-5---|
E|---------------------------|

i don't know the end of the chorus, feel free to add it and correct me.
Добавлено: 25.08.2015
Другие материалы по этой песне:
  • Аккорды и текст

Страница создана 14.03.2012
http://primanota.ru/paul-simon/killer-wants-to-go-to-college-chords.htm
Привет, Гость.
Предлагаем пройти революционный курс по гитаре.
Подарок от PrimaNota.Ru, забирай!