PrimaNota.ru - самый крупный в мире бесплатный архив песенных текстов, аккордов, табулатур и нот


Paul Simon - Call me al - аккорды и текст, видео

Регистрация Запомнить меня
Войти через:  Facebook Google Twitter Vk Yandex Mail.ru

Paul Simon - Call me al - аккорды и текст, видео

Печатать
Просмотров: 115
Call me al
Paul Simon
G||--------------2--5--------5--|-----------3--5--------5---||
D||--3--(3)--3-----------------|--5--5--5-----------------||
A||----------------------------|--------------------------||
E||-----------------------------|---------------------------||

Chorus
G||------------2--5-----------2--5--|-----------3--5-----5-----5---||
D||--3--3--3--------3--3--3--------|--5--5--5--------------------||
A||--------------------------------|-----------------------------||
E||---------------------------------|------------------------------||

Post Chorus
G||---------2--5--10--10--10--10--5--2--|-----------3--5--7--7--7--7--5--2---||
D||--3--3------------------------------|--5--5--5--------------------------||
A||------------------------------------|-----------------------------------||
E||-------------------------------------|------------------------------------||

Slap Solo - The bit you've all been waiting for ;-)
G|--15--17------------------------------------------------|
D|--------------15--17------------------------------------|
A|----------17----------13--15--17--13--------------------|
E|--------------------------------------15--15--17--15----|

G|----------------------------------------------------------17--15--||
D|----------------------------------------------17--15--------------||
A|--15--17--17--15------------------17--15--------------17----------||
E|------------------15--17--15--13----------17----------------------||
Добавлено: 24.12.2013
Другие материалы по этой песне:
  • Аккорды и текст

Страница создана 08.03.2012
http://primanota.ru/paul-simon/call-me-al-chords.htm
Привет, Гость.
Предлагаем пройти революционный курс по гитаре.
Подарок от PrimaNota.Ru, забирай!