PrimaNota.ru - самый крупный в мире бесплатный архив песенных текстов, аккордов, табулатур и нот


Paul Osburn - Presence - аккорды и текст, видео

Регистрация Запомнить меня
Войти через:  Facebook Google Twitter Vk Yandex Mail.ru

Paul Osburn - Presence - аккорды и текст, видео

Печатать
Просмотров: 119
Уроки эстрадного вокала в Санкт-Петербурге
Presence
Paul Osburn
Paul Osburn
Presence

www.paulosburn.com

you can see a video of the song here:
http://www.youtube.com/watch?v=o-XQeaX3QG8&feature=channel_video_title

Capo 2
Everything is relative to that

Chords:
    E/C#  E/A   E/B   B  B/D#  B/Ab  A
E||--0-----0-----0-----0-----0-----0----0---|
B||--0-----0-----0-----0-----0-----0----0---|
G||--4-----4-----4----11-----4----11----9---|
D||--2-----2-----2-----9-----1-----9----7---|
A||--4-----0-----2-----9-----2----11----0---|
E||--x-----x-----x-----x-----x-----0----x---|


INTRO
E||--------------0-----------|--------------0----------|
B||-----------0-----0--------|-----------0-----0-------|
G||--------4-----------4-----|--------4-----------4----|
D||-----2-----------------2--|-----2-----------------2-|
A||--4-----------------------|--0----------------------|
E||--------------------------|-------------------------|

E||--------------0-----------|--------------0----------|
B||-----------0-----0--------|-----------0-----0-------|
G||--------4-----------4-----|--------11---------11----|
D||-----2-----------------2--|-----9-----------------9-|
A||--2-----------------------|--9----------------------|
E||--------------------------|-------------------------|

E||--------------0-----------|--------------0----------|
B||-----------0-----0--------|-----------0-----0-------|
G||--------4-----------4-----|--------4-----------4----|
D||-----2-----------------2--|-----2-----------------2-|
A||--4-----------------------|--0----------------------|
E||--------------------------|-------------------------|

E||--------------0-----------|--------------0----------|
B||-----------0-----0--------|-----------0-----0-------|
G||--------4-----------4-----|--------4-----------4----|
D||-----2-----------------2--|-----1-----------------1-|
A||--2-----------------------|--2----------------------|
E||--------------------------|-------------------------|

Repeat for intro and verse, but this is what is played over
the vocal part when it says 'eternity', as show below:

E||--------------------------|
B||--------------------------|
G||--------4--------4--------|
D||-----2--------2-----------|
A||--2--------4--------0-----|
E||--------------------------|
    eter  -   nit   -  y


Chords & Lyrics


Verse:
E/C#       E/A               E/B        B
You're the sweetest girl Ive ever meet
E/C#  E/A         E/B           B/D#
Id do anything to get you in my presence again
E/C#     E/A                     E/B    B
just one night could change your life
E/C#         E/A           E/B        B/D#
It will just take one time for you to realize


Pre-Chorus:
     E/C#    E/A    E/B     B
that you and I were made to be
E/C# E/A     E/B  E/C#  E/A  
together for eter-nit - y


Chorus:
B/Ab
I'm on this winding road and I cannot see
A
Where the end is meant to be
E/C#          E/B                E/A  
but if I stay strong ill make it through just fine
B/Ab
I just wish that you could join me
A
on that path I am exploring
E/C#                  E/B       E/A 
cuz then we'd both be able to define our lives


Post-Chorus:
E/C#  E/B  E/A  E/B


Verse:
E/C#       E/A               E/B        B
You're the sweetest girl Ive ever meet
E/C#  E/A         E/B           B/D#
Id do anything to get you in my presence again
E/C#     E/A                     E/B    B
just one night could change your life
E/C#         E/A           E/B        B/D#
It will just take one time for you to realize

Pre-Chorus:
     E/C#    E/A    E/B     B
that you and I were made to be
E/C# E/A     E/B  E/C#  E/A  
together for eter-nit - y


Chorus
Verse

(sound ends with a soft last verse)
Добавлено: 08.05.2012
Другие материалы по этой песне:
  • Аккорды и текст

Страница создана 08.05.2012
http://primanota.ru/paul-osburn/presence-chords.htm
Привет, Гость.
Предлагаем пройти революционный курс по гитаре.
Подарок от PrimaNota.Ru, забирай!