PrimaNota.ru - самый крупный в мире бесплатный архив песенных текстов, аккордов, табулатур и нот


Paul McCartney - Mrs Vanderbilt - аккорды и текст, бас-таба, видео

Регистрация Запомнить меня
Войти через:  Facebook Google Twitter Vk Yandex Mail.ru

Paul McCartney - Mrs Vanderbilt - аккорды и текст, бас-таба, видео

Печатать
Просмотров: 2981
Mrs Vanderbilt
Paul McCartney
Some chords:
Dm:xx0231
Dm/C:x3x231
G/B:x20033



Am Em E7 Am

Am
Down in the jungle living in a tent
     Em
You don't use money you don't pay rent
     E7
You don't ever know the time
              Am
But you don't mind
Am     Em  E7     Am
Ho hey ho  ho hey ho

Am     Em  E7     Am
Ho hey ho  ho hey ho

                           Em
When your light is on the blink
           E7          Am
You never think of worrying
E7                   Am
   What's the use of worrying?
                           Em                     
When your bus has left the stop
              E7       Am                 
You'd better drop your hurrying
E7                   Am        A7
   What's the use of hurrying?

Dm        Dm/C      G/B      G
Leave me alone mrs vandebilt
           C                  Em         
I've got plenty of time of my own

Dm  Am

E7                   Am
   What's the use of worrying?
E7                   Am  
   What's the use of hurrying?
E7                    Dm  Am
    What's the use of a - nything?

Am     Em  E7     Am
Ho hey ho  ho hey ho

Am     Em  E7     Am   A7
Ho hey ho  ho hey ho

   Dm            Dm/C           G/B      G  
e|-------------------------------------------------------------|
B|------------10------------10---------8^v---------------------|
G|--------10-------------10----------7-----7---7---------------|
D|----/12------------/10----------/9---------9-----------------|
A|-------------------------------------------------------------|
E|-------------------------------------------------------------|

    C                     Em                    Dm        Am      
e|--------------------------------8-8p7---------------------------------|
B|----------8------------------8--------8--6^-6^v~---5^-5^v~------------|
G|--------9-------------9----9------------(7^-7^v~---5^-5^v~)2nd guitar-|
D|-----/10------------9-------------------------------------------------|
A|----------------/10---------------------------------------------------|
E|----------------------------------------------------------------------|



E7                   Am
   What's the use of worrying?
E7                   Am  
   What's the use of hurrying?
E7                    Dm  Am
    What's the use of a - nything?

Am     Em  E7     Am
Ho hey ho  ho hey ho

Am     Em  E7     Am   
Ho hey ho  ho hey ho


                          Em
When your pile is one the wane
              E7           Am
You don't complain of robbery
E7                 Am
   Run away don't bother me
E7                   Am
   What's the use of worrying?
E7                   Dm   Am       A7
   What's the use of a  - nything?

Dm        Dm/C      G/B      G
Leave me alone mrs Washington
           C                  Em         
I've got plenty of time of my own

Dm  Am

E7                   Am
   What's the use of worrying?
E7                   Am  
   What's the use of hurrying?
E7                    Dm  Am
    What's the use of a - nything?

Am     Em  E7     Am
Ho hey ho  ho hey ho

Am     Em  E7     Am  
Ho hey ho  ho hey ho.......
Добавлено: 10.05.2012
Другие материалы по этой песне:
  • Аккорды и текст

Страница создана 10.05.2012
http://primanota.ru/paul-mccartney/mrs-vanderbilt-chords.htm
Привет, Гость.
Предлагаем пройти революционный курс по гитаре.
Подарок от PrimaNota.Ru, забирай!