PrimaNota.ru - самый крупный в мире бесплатный архив песенных текстов, аккордов, табулатур и нот


Paul McCartney - Love In Song - текст песни, таба, видео

Регистрация Запомнить меня
Войти через:  Facebook Google Twitter Vk Yandex Mail.ru

Paul McCartney - Love In Song - текст песни, таба, видео

Печатать
Просмотров: 329
Song: Love In Song
Artist: Paul McCartney
Album: Venus And Mars
Tabbed By: Trifonas


Tuning:Standard EADGBe (Low To High)
CAPO 3

Chords Used:
  Em   Em7  Em6 Am7/E  C   Bm7  E7
e|-0-||-0-||-x-||-0-||-0-||-2-||-0-|
B|-0-||-3-||-2-||-1-||-1-||-3-||-3-|
G|-0-||-0-||-0-||-0-||-0-||-2-||-1-|
D|-2-||-2-||-2-||-2-||-2-||-4-||-2-|
A|-2-||-2-||-2-||-x-||-3-||-2-||-x-|
E|-0-||-0-||-0-||-0-||---||---||-0-|


Intro:

(this is what is actually played in the verses, you can either play this or the chords 
above - relative to capo)
e|----------------------------------------------------------|
B|----------3------------2----------1-----------0-----------|
G|--------0------------0----------0-----------0-------------|
D|-----2------------2-----------2----------2----------------|
A|---------------------------0------------------------------|
E|---0-----------0---------------------0--------------------|

e|------------------------------------|
B|-----3--3--3------3--3--3-----------|
G|----1--1--1--1---1--1--1--1---------|
D|---2--2--2--2---2--2--2--2----------|
A|------------------------------------|
E|--0-----------0------------0--------|

Verse 1:
 Em7           Em6
My heart cries out for love
    Am7/E               Em
And all that goes with loving
         E7             E7
Love in song - love in song

Verse 2:
 Em7           Em6
My, you're so fine
              Am7/E
When love is mine
             Em
I can't go wrong,
        E7             E7
Love in song - love in song

Chorus:
Em              C
I can see the places that
    Bm7          Em7
We used to go to now
 C                Am7/E
Happiness in the homeland

Em7 Em6 Am7/E Em

 C                Am7/E
Happiness in the homeland

Em7 Em6 Am7/E Em

Verse 3:
Em7          Em6
My eye cries out
             Am7/E
A tear still born
          Em
Misunderstanding
    E7             E7
Love in song - love in song

Chorus:
Em              C
I can see the places that
    Bm7          Em7
We used to go to now
 C                Am7/E
Happiness in the homeland

Em7 Em6 Am7/E Em

 C                Am7/E
Happiness in the homeland

Em7 Em6 Am7/E Em

Verse 4:
Em7           Em6
My, you're so fine
              Am7/E
When love is mine
             Em
I can't go wrong,
        E7             E7
Love in song - love in song

NO CAPO

Chords Used:
  Gm   Gm7  Gm6 Cm7/G  Eb  Dm7  G7
e|-3-||-3-||-x-||-3-||-6-||-1-||-3-|
B|-3-||-6-||-5-||-4-||-7-||-1-||-6-|
G|-3-||-3-||-3-||-3-||-8-||-2-||-4-|
D|-5-||-5-||-5-||-5-||-8-||-0-||-5-|
A|-5-||-5-||-5-||-x-||-6-||---||-x-|
E|-3-||-3-||-3-||-3-||---||---||-3-|

e|----------------------------------------------------------|
B|----------6------------5----------4-----------3-----------|
G|--------3------------3----------3-----------3-------------|
D|-----5------------5-----------5----------5----------------|
A|---------------------------0------------------------------|
E|---3-----------3---------------------3--------------------|

e|------------------------------------|
B|-----6--6--6------6--6--6-----------|
G|----4--4--4--4---4--4--4--4---------|
D|---5--5--5--5---5--5--5--5----------|
A|------------------------------------|
E|--3-----------3------------3--------|

Verse 1:
 Gm7           Gm6
My heart cries out for love
    Cm7/G               Gm
And all that goes with loving
         G7             G7
Love in song - love in song

Verse 2:
 Gm7           Gm6
My, you're so fine
              Cm7/G
When love is mine
             Gm
I can't go wrong,
        G7             G7
Love in song - love in song

Chorus:
Gm              Eb
I can see the places that
    Dm7          Gm7
We used to go to now
 Eb                Cm7/G
Happiness in the homeland

Gm7 Gm6 Cm7/G Gm

 Eb                Cm7/G
Happiness in the homeland

Gm7 Gm6 Cm7/G Gm

Verse 3:
Gm7          Gm6
My eye cries out
             Cm7/G
A tear still born
          Gm
Misunderstanding
    G7             G7
Love in song - love in song

Chorus:
Gm              Eb
I can see the places that
    Dm7          Gm7
We used to go to now
 Eb                Cm7/G
Happiness in the homeland

Gm7 Gm6 Cm7/G Gm

 Eb                Cm7/G
Happiness in the homeland

Gm7 Gm6 Cm7/G Gm

Verse 4:
Gm7           Gm6
My, you're so fine
              Cm7/E
When love is mine
             Gm
I can't go wrong,
        G7             G7
Love in song - love in song

That's it! Any question/correction: trifwnas@hotmail.gr
Добавлено: 17.06.2013
Другие материалы по этой песне:

Страница создана 13.03.2012
http://primanota.ru/paul-mccartney/love-in-song-chords.htm
Привет, Гость.
Предлагаем пройти революционный курс по гитаре.
Подарок от PrimaNota.Ru, забирай!