PrimaNota.ru - самый крупный в мире бесплатный архив песенных текстов, аккордов, табулатур и нот


Paul McCartney - Heather - текст песни, бас-таба, видео

Регистрация Запомнить меня
Войти через:  Facebook Google Twitter Vk Yandex Mail.ru

Paul McCartney - Heather - текст песни, бас-таба, видео

Печатать
Просмотров: 84
Новый альбом группы 'Черный Кузнец' по культовому сериалу 'Сверхъестественное'!
Instrumental until 2:31

G|---------------------------------|---------------------------------|
D|---------------------------------|---------------------------------|
A|7-------7-------7-------7--------|7-------7-------7-------7--------|
E|---------------------------------|---------------------------------|

G|---------------------------------|---------------------------------|
D|---------------------------------|---------------------------------|
A|7-------7-------7-------7--------|7-------7-------7-------7---\----|
E|---------------------------------|---------------------------------|

G|---------------------------------|---------------------------------|
D|---------------------------------|---------------------------------|
A|4-------4-------4-------4--------|4-------4-------4-------4--------|
E|---------------------------------|---------------------------------|

G|---------------------------------|---------------------------------|
D|---------------------------------|---------------------------------|
A|2-------2-------2-------2--------|2-------2-------2-------2--------|
E|---------------------------------|---------------------------------|

G|---------------------------------|---------------------------------|
D|---------------------------------|---------------------------------|
A|1-------1-------1-------1--------|1-------1-------1-------1--------|
E|---------------------------------|---------------------------------|

G|---------------------------------|---------------------------------|
D|----------------------------2----|---------------------------------|
A|0-------0-------0-------4--------|2-------2-------2-------2---/----|
E|---------------------------------|---------------------------------|

G|---------------------------------|---------------------------------|
D|---------------------------------|---------------------------------|
A|7-------7-------7-------7--------|7-------7-------7-------7--------|
E|---------------------------------|---------------------------------|

G|---------------------------------|---------------------------------|
D|---------------------------------|---------------------------------|
A|7-------7-------7-------7--------|7-------7-------7-------7---6----|
E|---------------------------------|---------------------------------|

G|---------------------------------|---------------------------------|
D|---------------------------------|---------------------------------|
A|4-------4-------4---------2------|4-------4-------4---------2------|
E|------------------------4--------|------------------------4--------|

G|---------------------------------|---------------------------------|
D|-----------------------------/---|9-----9-9---9-\------------------|
A|2-------2-------2-------2--------|----------------2-------2--------|
E|---------------------------------|---------------------------------|

G|---------------------------------|---------------------------------|
D|---------------------------------|----------------------------4----|
A|1-------1-------1-------1--------|1-------1-------1-------4--------|
E|---------------------------------|---------------------------------|

G|---------------------------------|---------------------------------|
D|------------------------2---4----|---------------------------------|
A|0-------0-------0---4------------|2-------2-------2-------2---/----|
E|---------------------------------|---------------------------------|

Tempo change

G|---------------------------------|----------------------------|
D|------------------------2--------|----------------------------| * 7 instead
A|2-----------0--------------------|2---2---2---2---2---2---2---| of 8
E|---------------------------------|----------------------------|

G|---------------------------------|----------------------------|
D|------------------------2--------|----------------------------| *
A|2-----------0--------------------|2---------------------------|
E|---------------------------------|------------0---------------|

G|---------------------------------|----------------------------|
D|------------------------2--------|----------------------------| *
A|2-----------0--------------------|2---2---2---2---2---2---2---|
E|---------------------------------|----------------------------|

G|---------------------------------|----------------------------|
D|------------------------6--------|4---\-----------------------| *
A|2-----------0--------------------|----------------------------|
E|---------------------------------|------------0---------------|

G|---------------------------------|---------------------------------|
D|7---7---7---7---7---7---7---7----|7---7---7---7---7---7---7---7----|
A|---------------------------------|---------------------------------|
E|---------------------------------|---------------------------------|

G|---------------------------------|---------------------------------|
D|7---7---7---7---7---7---7---7----|---------------------------------|
A|---------------------------------|7---7---7---7---7---7---7---7----|
E|---------------------------------|---------------------------------|

G|---------------------------------|---------------------------------|
D|9-----------9-----------7--------|9---9----------------------------|
A|----------------9----------------|--------9-------9-------9--------|
E|---------------------------------|---------------------------------|

Tempo change :

G|----------------9-------9--------|---------------------------------|
D|---------------------------------|---------------------------------|
A|7-------7------------------------|7-------7-------7-------7--------|
E|---------------------------------|---------------------------------|

G|---------------------------------|9--------------------------------|
D|---------------------------------|---------------------------------|
A|7-------7-------7-------7--------|--------7-------7-------7--------|
E|---------------------------------|---------------------------------|

G|---------------------------------|---------------------------------|
D|---------------------------------|---------------------------------|
A|4-4-----4-4-------4-----4-4------|4-------4-4-----4-4-----4-4------|
E|----------------4----------------|---------------------------------|

G|---------------------------------|---------------------------------|
D|---------------------------------|--------2------------------------|
A|2-------2-------2-------2--------|2---------------2-----/-7--------|
E|---------------------------------|---------------------------------|

G|---------------------------------|---------------------------------|
D|---------------------------------|--------------------------4------|
A|1-------1-1-----1-------1-1------|1-------1-1-----1-------1--------|
E|---------------------------------|---------------------------------|

G|---------------------------------|---------------------------------|
D|--------------------------4------|---------------------------------|
A|0-------0-------0-------0--------|2-------2-------2-------2--------|
E|---------------------------------|---------------------------------|

Tempo change

G|---------------------------------|----------------------------|
D|------------------------2--------|----------------------------| * 7 instead
A|2-----------0--------------------|2---2---2---2---2---2---2---| of 8
E|---------------------------------|----------------------------|

G|---------------------------------|----------------------------|
D|------------------------2--------|----------------------------| *
A|2-----------0--------------------|2---------------------------|
E|---------------------------------|------------0---------------|

G|---------------------------------|----------------------------|
D|------------------------2--------|----------------------------| *
A|2-----------0--------------------|2---2---2---2---2---2---2---|
E|---------------------------------|----------------------------|

G|---------------------------------|----------------------------|
D|------------------------6--------|4---\-----------------------| *
A|2-----------0--------------------|----------------------------|
E|---------------------------------|------------0---------------|

G|---------------------------------|---------------------------------|
D|7---7---7---7---7---7---7---7----|7---7---7---7---7---7---7---7----|
A|---------------------------------|---------------------------------|
E|---------------------------------|---------------------------------|

G|---------------------------------|---------------------------------|
D|7---7---7---------------7--------|---------------------------------|
A|----------------7----------------|7-------7------------------------|
E|---------------------------------|----------------7---\------------|

G|------------9---9---9---9---9----|---------------------------------|
D|---------------------------------|---------------------------------|
A|---------------------------------|---------------------------------|
E|0---0---0------------------------|0---------------0----------------|

G|---------------------------------|---------------------------------|
D|---------------------------------|9---9---9---------------9--------|
A|2-------------------/---9--------|--------------------9------------|
E|---------------------------------|---------------------------------|

Tempo change :

Chorus : 2:31
G|---------------------------------|---------------------------------|
D|---------------------------------|---------------------------------|
A|7-------7-------7-------7--------|7-------7-------7-------7--------|
E|---------------------------------|---------------------------------|

G|---------------------------------|-------------/--9-9-9---9-9-\----|
D|---------------------------------|---------------------------------|
A|--------7---------------7--------|--------7------------------------|
E|0---------------0----------------|0--------------------------------|

G|---------------------------------|-------------/--6-6--------------|
D|---------------------------------|--------------------6------------|
A|4-------4-------4-------4--------|4-------4---------------4--------|
E|---------------------------------|---------------------------------|

G|---------------------------------|---------------------------------|
D|---------------------------------|----------------------------2----|
A|2-------2-------2-------2--------|2-------2-------2-------2--------|
E|---------------------------------|---------------------------------|

G|---------------------------------|---------------------------------|
D|---------------------------------|--------------------4------------|
A|1-------1-------1-------1--------|1-------1-------1-------1--------|
E|---------------------------------|---------------------------------|

G|---------------------------------|---------------------------------|
D|---------------------------------|---------------------------------|
A|0---------------0----------------|2-----------2---2-------2--------|
E|---------------------------------|---------------------------------|

Outro :
G|---------------------------------|---------------------------------|
D|---------------------------------|---------------------------------|
A|7-------7-------7-------7--------|7-------7-------7-------7--------|
E|---------------------------------|----------------------------7----|

G|---------------------------------|---------------------------------|
D|---------------------------------|---------------------------------|
A|----------------2-------2--------|---------------------------------|
E|0--------------------------------|----0----------------------------|
Добавлено: 17.03.2018
Другие материалы по этой песне:
  • Аккорды и текст

Страница создана 30.03.2012
http://primanota.ru/paul-mccartney/heather-chords.htm
Привет, Гость.
Предлагаем пройти революционный курс по гитаре.
Подарок от PrimaNota.Ru, забирай!