PrimaNota.ru - самый крупный в мире бесплатный архив песенных текстов, аккордов, табулатур и нот


Paul McCartney - Hands Of Love - текст песни, бас-таба, видео

Регистрация Запомнить меня
Войти через:  Facebook Google Twitter Vk Yandex Mail.ru

Paul McCartney - Hands Of Love - текст песни, бас-таба, видео

Печатать
Просмотров: 137
m/mc_cartney/Hands_Of_Love.btab

TablEdited by Jan Bjorklund, Finland  jani_bjorklund@yahoo.se>
You are welcome to request for tabs!
Fingering and positions as suggested by TablEdit, please use common sense!

TablEdited by Jan Bjorklund
Tuning : E A D G 	Time Signature: 4/4

  |       |       |       |          |       |       |       |         
||2---------------2----------------|-4---------------4---------------||
|*---------------------------------|---------------------------------||
|*---------------------------------|---------------------------------||
||---------------------------------|---------------------------------||

>1|       |       |       |          |       |       |       |         
|----------------------------------|-2---------------9---------------||
|-2---------------2-------2--------|-------------------------2-------*|
|----------------------------------|---------------------------------*|
|----------------------------------|---------------------------------||

>2|       |       |       |          |       |       |       |         
|----------------------------------|-2---------------2----------------|
|-2---------------2----------------|----------------------------------|
|----------------------------------|----------------------------------|
|----------------------------------|----------------------------------|

  |       |       |       |          |       |       |       |         
|----------------------------------|-2---------------2-------2--------|
|-0---------------0-------0--------|----------------------------------|
|----------------------------------|----------------------------------|
|----------------------------------|----------------------------------|

  |       |       |       |          |       |       |       |         
|-4---------------4-------4--------|----------------------------------|
|----------------------------------|-2---------------2-------2--------|
|----------------------------------|----------------------------------|
|----------------------------------|----------------------------------|

>3|       |       |       |          |       |       |       |         
|-0-------0------------------------|-4--------------------------------|
|-----------------4----------------|-----------------2-------2--------|
|----------------------------------|----------------------------------|
|----------------------------------|----------------------------------|

  |       |       |       |          |       |       |       |         
||2-------2-------2-------2--------|-2-------2-------9-------7-------||
|*---------------------------------|---------------------------------*|
|*---------------------------------|---------------------------------*|
||---------------------------------|---------------------------------||

  |       |       |       |          |       |       |       |         
|-0-------0------------------------|----------------------------------|
|-----------------4----------------|-3-------3-------2-------2--------|
|----------------------------------|----------------------------------|
|----------------------------------|----------------------------------|




Created with TablEdit http://www.tabledit.com/


............................................................
     
Добавлено: 30.10.2013
Другие материалы по этой песне:

Страница создана 03.03.2012
http://primanota.ru/paul-mccartney/hands-of-love-chords.htm
Привет, Гость.
Предлагаем пройти революционный курс по гитаре.
Подарок от PrimaNota.Ru, забирай!