PrimaNota.ru - самый крупный в мире бесплатный архив песенных текстов, аккордов, табулатур и нот


Paul McCartney - End Of Chaos And Creation In The Back Yard - бас-таба, видео

Регистрация Запомнить меня
Войти через:  Facebook Google Twitter Vk Yandex Mail.ru

Paul McCartney - End Of Chaos And Creation In The Back Yard - бас-таба, видео

Печатать
Просмотров: 187
   
      end of the back yard (dvd version)
      tabed by erick lópez espinosa, México.

   1.----------------------------------------------|
   2.----------------------------------------------| x2
   3.----------------------------------------------|
   4.---12-12/5--5-5-5-5--7-7-7-7-7-5-3-3-3-3-3/1-1|

   1.---------------------|------------------|
   2.---------------------|------------------|
   3.--------------4/6/4--|--------------4/6-|
   4.---5--3--1-----------|---5--3--1--------|
   
   1.--------------------------------------------|
   2.--------------------------------------------| x2
   3.-7-7----------------------------------------|
   4.-----5--5-5-5-5--7-7-7-7-7-5-3-3-3-3-3/1-1--|
   
   1.---------------------|------------------|
   2.---------------------|------------------|
   3.--------------4/6/4--|--------------4/6-|
   4.---5--3--1-----------|---5--3--1--------|

      and repeat.


Добавлено: 15.07.2012
Другие материалы по этой песне:
  • Аккорды и текст

Страница создана 08.05.2012
http://primanota.ru/paul-mccartney/end-of-chaos-and-creation-in-the-back-yard-chords.htm
Привет, Гость.
Предлагаем пройти революционный курс по гитаре.
Подарок от PrimaNota.Ru, забирай!