PrimaNota.ru - самый крупный в мире бесплатный архив песенных текстов, аккордов, табулатур и нот


Paul McCartney - Coming Up Live - бас-таба, видео

Регистрация Запомнить меня
Войти через:  Facebook Google Twitter Vk Yandex Mail.ru

Paul McCartney - Coming Up Live - бас-таба, видео

Печатать
Просмотров: 119
COMING UP (live)

INTRO

G|---------------------------------|---------------------------------|
D|---------------------------------|---------------------------------|
A|---------------------------------|-------------------------2-------|
E|-0-----------0---0---------------|-0-----------0---4---------------|

G|---------------------------------|---------------------------------|
D|---------------------------------|---------------------------------|
A|---------------------------------|-------------------------2-------|
E|-0-----------0---0---------------|-0-----------0---4---------------|

G|---------------------------------|---------------------------------|
D|---------------------------------|---------------------------------|
A|---------------------------------|-------------------------2-------|
E|-0-----------0---0---------------|-0-----------0---4---------------|

G|---------------------------------|---------------------------------|
D|---------------------------------|---------------------------------|
A|---------------------------------|-------------------------2-------|
E|-0-----------0---0---------------|-0-----------0---4---------------|

VERSE

G|---------------------------------|---------------------------------|
D|---------------------------------|---------------------------------|
A|---------------------------------|-------------------------2-------|
E|-0-----------0---0---------------|-0-----------0---4---------------|

G|---------------------------------|---------------------------------|
D|---------------------------------|---------------------------------|
A|---------------------------------|-------------------------2-------|
E|-0-----------0---0---------------|-0-----------0---4---------------|

G|---------------------------------|---------------------------------|
D|---------------------------------|---------------------------------|
A|---------------------------------|-------------------------2-------|
E|-0-----------0---0---------------|-0-----------0---4---------------|

G|---------------------------------|---------9-----------------------|
D|---------------------------------|---------------------------------|
A|---------------------------------|---------7-----------------------|
E|-0-----------0---0---------------|-0-------------------------------|

CHORUS

G|---------2---------------4-------|---------6---------------7-------|
D|---------------------------------|---------------------------------|
A|-----------------2-----------2---|-4-----------4---5-----------5-6-|
E|-5-----------5-------------------|---------------------------------|

G|---------------------------------|-----0-----------1---------------|
D|-2-------2---------------4-------|---------------------------------|
A|---------------------------------|---------------------------------|
E|-------------0---2-----------2---|-3-------3---4-----------4-------|

G|---------2---------------4-------|---------6---------------7-------|
D|---------------------------------|---------------------------------|
A|-----------------2-----------2---|-4-----------4---5-----------5-6-|
E|-5-----------5-------------------|---------------------------------|

G|---------------------------------|-----0-----------1---------------|
D|-2-------2---------------4-------|---------------------------------|
A|---------------------------------|---------------------------------|
E|-------------0---2-----------2---|-3-------3---4-------------------|

G|---------------------------------|---------------------------------|
D|---------------------------------|---------------------------------|
A|---------------------------------|-------------------------2-------|
E|-0-----------0---0---------------|-0-----------0---4---------------|

G|---------------------------------|---------------------------------|
D|---------------------------------|---------------------------------|
A|---------------------------------|-------------------------2-------|
E|-0-----------0---0---------------|-0-----------0---4---------------|

VERSE

G|---------------------------------|---------------------------------|
D|---------------------------------|---------------------------------|
A|---------------------------------|-------------------------2-------|
E|-0-----------0---0---------------|-0-----------0---4---------------|

G|---------------------------------|---------------------------------|
D|---------------------------------|---------------------------------|
A|---------------------------------|-------------------------2-------|
E|-0-----------0---0---------------|-0-----------0---4---------------|

G|---------------------------------|---------------------------------|
D|---------------------------------|---------------------------------|
A|---------------------------------|-------------------------2-------|
E|-0-----------0---0---------------|-0-----------0---4---------------|

G|---------------------------------|---------9-----------------------|
D|---------------------------------|---------------------------------|
A|---------------------------------|---------7-----------------------|
E|-0-----------0---0---------------|-0-------------------------------|

CHORUS

G|---------2---------------4-------|---------6---------------7-------|
D|---------------------------------|---------------------------------|
A|-----------------2-----------2---|-4-----------4---5-----------5-6-|
E|-5-----------5-------------------|---------------------------------|

G|---------------------------------|-----0-----------1---------------|
D|-2-------2---------------4-------|---------------------------------|
A|---------------------------------|---------------------------------|
E|-------------0---2-----------2---|-3-------3---4-----------4-------|

G|---------2---------------4-------|---------6---------------7-------|
D|---------------------------------|---------------------------------|
A|-----------------2-----------2---|-4-----------4---5-----------5-6-|
E|-5-----------5-------------------|---------------------------------|

G|---------------------------------|-----0-----------1---------------|
D|-2-------2---------------4-------|---------------------------------|
A|---------------------------------|---------------------------------|
E|-------------0---2-----------2---|-3-------3---4-------------------|

G|---------------------------------|---------------------------------|
D|---------------------------------|---------------------------------|
A|---------------------------------|-------------------------2-------|
E|-0-----------0---0---------------|-0-----------0---4---------------|

G|---------------------------------|---------------------------------|
D|---------------------------------|---------------------------------|
A|---------------------------------|-------------------------2-------|
E|-0-----------0---0---------------|-0-----------0---4---------------|

INTERLUDE

G|---------------------------------|---------------------------------|
D|---------------------------------|---------------------------------|
A|-0---0-----------0---0-----------|-0---0-----------0---------------|
E|-------------3-------------------|-------------3---------------3---|

G|---------------------------------|---------------------------------|
D|---------------------------------|---------------------2---5-------|
A|-0---0-----------0-------0-------|-0-----0-2---3---4---------------|
E|-------------3---------------3---|---------------------------------|

G|---------------------------------|---------------------------------|
D|-2-------------------------------|---------------------------------|
A|---------------------------------|---------------------------------|
E|-------------0---0-----------0---|-0-----------0---4-------2---0---|

G|---------------------------------|---------------------------------|
D|---------------------------------|-----------------------------2---|
A|---------------------------------|---------------------0---3-------|
E|-------------0---0-----------0---|-0---3-------4-------------------|

VERSE

G|---------------------------------|---------------------------------|
D|---------------------------------|---------------------------------|
A|---------------------------------|-------------------------2-------|
E|---------------------------------|-0-----------0---4---------------|

G|---------------------------------|---------------------------------|
D|---------------------------------|---------------------------------|
A|---------------------------------|-------------------------2-------|
E|-0-----------0---0---------------|-0-----------0---4---------------|

G|---------------------------------|---------------------------------|
D|---------------------------------|---------------------------------|
A|---------------------------------|-------------------------2-------|
E|-0-----------0---0---------------|-0-----------0---4---------------|

G|---------------------------------|---------9-----------------------|
D|---------------------------------|---------------------------------|
A|---------------------------------|---------7-----------------------|
E|-0-----------0---0---------------|-0-------------------------------|

CHORUS

G|---------2---------------4-------|---------6---------------7-------|
D|---------------------------------|---------------------------------|
A|-----------------2-----------2---|-4-----------4---5-----------5-6-|
E|-5-----------5-------------------|---------------------------------|

G|---------------------------------|-----0-----------1---------------|
D|-2-------2---------------4-------|---------------------------------|
A|---------------------------------|---------------------------------|
E|-------------0---2-----------2---|-3-------3---4-----------4-------|

G|---------2---------------4-------|---------6---------------7-------|
D|---------------------------------|---------------------------------|
A|-----------------2-----------2---|-4-----------4---5-----------5-6-|
E|-5-----------5-------------------|---------------------------------|

G|---------------------------------|-----0-----------1---------------|
D|-2-------2---------------4-------|---------------------------------|
A|---------------------------------|---------------------------------|
E|-------------0---2-----------2---|-3-------3---4-------------------|

G|---------------------------------|---------------------------------|
D|---------------------------------|---------------------------------|
A|---------------------------------|---------------------------------|
E|-0-------------------------------|-0-------------------------------|

G|---------------------------------|---------------------------------|
D|---------------------------------|---------------------------------|
A|---------------------------------|---------------------------------|
E|-0-------------------------------|---------------------------------|

G|---------------------------------|---------------------------------|
D|---------------------------------|---------------------------------|
A|---------------------------------|-------------------------2-------|
E|-0-----------0---0---------------|-0-----------0---4---------------|

G|---------------------------------|---------------------------------|
D|---------------------------------|---------------------------------|
A|---------------------------------|-------------------------2-------|
E|-0-----------0---0---------------|-0-----------0---4---------------|

VERSE

G|---------------------------------|---------------------------------|
D|---------------------------------|---------------------------------|
A|---------------------------------|-------------------------2-------|
E|-0-----------0---0---------------|-0-----------0---4---------------|

G|---------------------------------|---------------------------------|
D|---------------------------------|---------------------------------|
A|---------------------------------|-------------------------2-------|
E|-0-----------0---0---------------|-0-----------0---4---------------|

G|---------------------------------|---------------------------------|
D|---------------------------------|---------------------------------|
A|---------------------------------|-------------------------2-------|
E|-0-----------0---0---------------|-0-----------0---4---------------|

G|---------------------------------|-9-------------------------------|
D|---------------------------------|---------------------------------|
A|---------------------------------|-7-------------------------------|
E|-0-----------0---0---------------|---------------------------------|

CHORUS

G|---------2---------------4-------|---------6---------------7-------|
D|---------------------------------|---------------------------------|
A|-----------------2-----------2---|-4-----------4---5-----------5-6-|
E|-5-----------5-------------------|---------------------------------|

G|---------------------------------|-----0-----------1---------------|
D|-2-------2---------------4-------|---------------------------------|
A|---------------------------------|---------------------------------|
E|-------------0---2-----------2---|-3-------3---4-----------4-------|

G|---------2---------------4-------|---------6---------------7-------|
D|---------------------------------|---------------------------------|
A|-----------------2-----------2---|-4-----------4---5-----------5-6-|
E|-5-----------5-------------------|---------------------------------|

G|---------------------------------|-----0-----------1---------------|
D|-2-------2---------------4-------|---------------------------------|
A|---------------------------------|---------------------------------|
E|-------------0---2-----------2---|-3-------3---4-------------------|

G|---------2---------------4-------|---------6---------------7-------|
D|---------------------------------|---------------------------------|
A|-----------------2-----------2---|-4-----------4---5-----------5-6-|
E|-5-----------5-------------------|---------------------------------|

G|---------------------------------|-----0-----------1-----------1---|
D|-2-------2---------------4-------|---------------------------------|
A|---------------------------------|---------------------------------|
E|-------------0---2-----------2---|-3-------3---4-----------4-------|

G|---------2---------------4-------|---------6---------------7-------|
D|---------------------------------|---------------------------------|
A|-----------------2-----------2---|-4-----------4---5-----------5-6-|
E|-5-----------5-------------------|---------------------------------|

G|---------------------------------|-----0-----------1---------------|
D|-2-------2---------------4-------|---------------------------------|
A|---------------------------------|---------------------------------|
E|-------------0---2-----------2---|-3-------3---4-------------------|

G|---------------------------------|---------------------------------|
D|---------------------------------|---------------------------------|
A|-0---------------2---------------|-4---------------5---------------|
E|---------------------------------|---------------------------------|

G|---------------------------------|---------------------------------|
D|---------------------------------|---------------------------------|
A|---------------------------------|---------------------------------|
E|-0-------------------------------|---------------------------------|
Добавлено: 19.07.2013
Другие материалы по этой песне:
  • Аккорды и текст

Страница создана 19.07.2013
http://primanota.ru/paul-mccartney/coming-up-live-chords.htm
Привет, Гость.
Предлагаем пройти революционный курс по гитаре.
Подарок от PrimaNota.Ru, забирай!