PrimaNota.ru - самый крупный в мире бесплатный архив песенных текстов, аккордов, табулатур и нот


Paul K. Joyce - Bob The Builder Theme Tune - таба, видео

Регистрация Запомнить меня
Войти через:  Facebook Google Twitter Vk Yandex Mail.ru

Paul K. Joyce - Bob The Builder Theme Tune - таба, видео

Печатать
Просмотров: 59
Новый альбом группы 'Черный Кузнец' по культовому сериалу 'Сверхъестественное'!
[Intro]

Lead:

E|-------------------------------------------------------------------------------|
B|--9------------------------------------------9---------------------------------|
G|------11---9-------------------------------------11---9------------------------|
D|---------------11-----------------------------------------11---9-9-7-----------|
A|--------------------9-9---11-11------------------------------------------------|
E|-------------------------------------------------------------------------------|

Rhythm:

E|----------------|--------|----------------|--------|
B|----------------|--------|----------------|--------|
G|-9-9-9-9-9-9-9-9|--------|-9-9-9-9-9-9-9-9|--------|
D|-9-9-9-9-9-9-9-9|-7-7-9-9|-9-9-9-9-9-9-9-9|7-7-2---|
A|-7-7-7-7-7-7-7-7|-7-7-9-9|-7-7-7-7-7-7-7-7|7-7-2---|
E|----------------|-5-5-7-7|----------------|5-5-0---|
Добавлено: 21.01.2018
Другие материалы по этой песне:
  • Аккорды и текст

Страница создана 21.01.2018
http://primanota.ru/paul-k-joyce/bob-builder-theme-tune-chords.htm
Привет, Гость.
Предлагаем пройти революционный курс по гитаре.
Подарок от PrimaNota.Ru, забирай!