PrimaNota.ru - самый крупный в мире бесплатный архив песенных текстов, аккордов, табулатур и нот


Paul Gilbert - My Teeth Are A Drum Set - таба, видео

Регистрация Запомнить меня
Войти через:  Facebook Google Twitter Vk Yandex Mail.ru

Paul Gilbert - My Teeth Are A Drum Set - таба, видео

Печатать
Просмотров: 199
When the rythem enters keep it in time with guitar 2.
Otherwise should be fun enjoy.

Standard

Guitar 1
|------------------------------------------------|
|------------------------------------------------|
|-2--2-----2-----2------------2--2-----2-----2---|
|-2--2-----2-----2------------2--2-----2-----2---|
|-0--0-----0-----0---x--x-----0--0-----0-----0---|
|-------3-----3------x--x-----------3-----3------|

Guitar 1
|---------------------------------------------------------------------|
|---------------------------------------------------------------------|
|-2--2------------------------5--5---2--2------------------------7--5-|
|-2--2--5-7-5-7------5h7p5----5--5---2--2--5-7-5-7------5h7p5----7--5-|
|-0--0----------5h7p5------7---------0--0----------5h7p5------7-------|
|---------------------------------------------------------------------|

Guitar 1
|----------------------------------------------------------|
|--------------------------------5---7---5---7---7---7-----|
|-2--2----------------------5-5--7b--9b--7b--9b--9b--9b----|
|-2--2--5-7-5-7------5h7p5--5-5----------------------------|
|-0--0----------5h7p5-----7--------------------------------|
|----------------------------------------------------------|

Guitar 1
|---------------------------------------------------------------------|
|---------------------------------------------------------------------|
|-2--2------------------------5--5---2--2------------------------7--5-|
|-2--2--5-7-5-7------5h7p5----5--5---2--2--5-7-5-7------5h7p5----7--5-|
|-0--0----------5h7p5------7---------0--0----------5h7p5------7-------|
|---------------------------------------------------------------------|

Guitar 2
|----------------------------------------12--12----14-10-14-10----14-10-14-10-----10-----|
|-5-----7---8----5-----7---8---10---10---15b-15b---------------13--------------13----13b-|
|-7b----9b--10b--7b----9b--10b-12b--12b--------------------------------------------------|
|----------------------------------------------------------------------------------------|
|----------------------------------------------------------------------------------------|
|----------------------------------------------------------------------------------------|


|-----------------------------------------------------------|
|-----------------------------------------------------------|
|-----------------------------------------------------------|
|----------5-----7-----9-----10-----------5-----7-----9-----|
|----7--3-----5-----7-----7---------7--3-----5-----7--------|
|-5------------------------------5----------------------3b--|

|--------------------------------------------------------------------------|
|--------------------------------------------------------------------------|
|--------------------------------------------------------------------------|
|----------5-----7-----9-----10-----------5-----7-----9------12------14----|
|----7--3-----5-----7-----7---------7--3-----5-----7-----10------12--------|
|-5------------------------------5-------------------------------------/3b-|

Guitar 1
|---------------------------------------------------------------------|
|---------------------------------------------------------------------|
|-2--2------------------------5--5---2--2------------------------7--5-|
|-2--2--5-7-5-7------5h7p5----5--5---2--2--5-7-5-7------5h7p5----7--5-|
|-0--0----------5h7p5------7---------0--0----------5h7p5------7-------|
|---------------------------------------------------------------------|

Guitar 1
|----------------------------------------------------------|
|--------------------------------5---7---5---7---7---7-----|
|-2--2----------------------5-5--7b--9b--7b--9b--9b--9b----|
|-2--2--5-7-5-7------5h7p5--5-5----------------------------|
|-0--0----------5h7p5-----7--------------------------------|
|----------------------------------------------------------|

Guitar 1
|---------------------------------------------------------------------|
|---------------------------------------------------------------------|
|-2--2------------------------5--5---2--2------------------------7--5-|
|-2--2--5-7-5-7------5h7p5----5--5---2--2--5-7-5-7------5h7p5----7--5-|
|-0--0----------5h7p5------7---------0--0----------5h7p5------7-------|
|---------------------------------------------------------------------|

Guitar 2
|----------------------------------------12--12----14-10-14-10----14-10-14-10-----10-----|
|-5-----7---8----5-----7---8---10---10---15b-15b---------------13--------------13----13b-|
|-7b----9b--10b--7b----9b--10b-12b--12b--------------------------------------------------|
|----------------------------------------------------------------------------------------|
|----------------------------------------------------------------------------------------|
|----------------------------------------------------------------------------------------|
Добавлено: 24.04.2012
Другие материалы по этой песне:

Страница создана 18.03.2012
http://primanota.ru/paul-gilbert/my-teeth-are-a-drum-set-chords.htm
Привет, Гость.
Предлагаем пройти революционный курс по гитаре.
Подарок от PrimaNota.Ru, забирай!