PrimaNota.ru - самый крупный в мире бесплатный архив песенных текстов, аккордов, табулатур и нот


Paul Gilbert - Get It - аккорды и текст, видео

Регистрация Запомнить меня
Войти через:  Facebook Google Twitter Vk Yandex Mail.ru

Paul Gilbert - Get It - аккорды и текст, видео

Печатать
Просмотров: 179
Get It
Paul Gilbert
GET IT
------------
PAUL GILBERT
 From "Flying Dog" Album

Transcribed By Sócrates  socrates@dreamtheater.zzn.com>
             ****************************************
             *http://www.geocities.com/socratesworld*
             ****************************************


Hi, this is GET IT! Form Mr. Paul Gilbert. I transcribed just the 
chord progression, since Paul plays the guitar with a low distortion 
level and strumming, so I think is not necessary to write all the 
details of the song. I write the intro section too, and the solo 
part. The solo actually it's 2 guitars making 3rd but I transcribed 
just the higher guitar. If anyone can help me with the rest, it would 
be great!
Best Regards!

Tune your guitar at D! And listen to the record to get the precise 
timing

But first, a little notation:

b  = bends ½, 1 or 2 tones
r  = release (bend & release)
~~ = vibrato
^  = hammer-on's & pull-off's




Intro:                                  ½
|-----------------2-2-4-5------------2-4b-r^2-4-2----|
|---------2-4-4-5---------4~~~~--0-4-----------------|
|-1-2-4-4--------------------------------------------|
|----------------------------------------------------|
|----------------------------------------------------|
|----------------------------------------------------|

                                        1
|-0-2-4-4-5-7-7-9-11-11-12-14-------------------------------------|
|-----------------------------12~~~~--14b--r-12-------------------|
|-----------------------------------------------14-13^14^13-11----|
|--------------------------------------------------------------13-|
|-----------------------------------------------------------------|
|-----------------------------------------------------------------|


Chord progression on verse:
E-G#min-B

Bridge Progression:
E-A-F#-B

Chorus Progression:
F#min-A-E-Esus4-E

Bridge to solo Progression:
C#min-A-G#min-F#min-C#min-A

Solo: 
|--------------------------------------------------------------------- --|
|---------2-4-4-5-7-7-9-10---0-10^0-7^0---0-10^0-7^0---0-10^0-7^0---0- --|
|-1-2-4-4------------------8------------8------------8------------8--- --|
|--------------------------------------------------------------------- --|
|--------------------------------------------------------------------- --|
|--------------------------------------------------------------------- --|

                      ½      ½             1
|---------9-11~~~-------16------------------------------------------|
|-9-10-12-----------16b----16br-13-------14b..14..14..14..14-r-12---|
|----------------------------------15-13----------------------------|
|-------------------------------------------------------------------|
|-------------------------------------------------------------------|
|-------------------------------------------------------------------|

                              1
|-------------------------------------------||
|---------------------------13br------------||
|-14-13-11-14-12------12-14-------15--14~~--||
|------------------14-----------------------||
|-------------------------------------------||
|-------------------------------------------||


After the solo:
F-Amin-C

Bridge Progression:
F-Bb-G-C

Chorus Progression:
Gmin-Bb-Dmin

Ending:
G-Bb-C#-D#-F
             ****************************************
             *http://www.geocities.com/socratesworld*
             ****************************************




visit the SOCRATES WORLD at: 
http://www.geocites.com/socratesworld 
Dream Theater : The Official Site - http://www.dreamtheater.net/
     
Добавлено: 20.07.2013
Другие материалы по этой песне:

Страница создана 14.06.2012
http://primanota.ru/paul-gilbert/get-it-chords.htm
Привет, Гость.
Предлагаем пройти революционный курс по гитаре.
Подарок от PrimaNota.Ru, забирай!