PrimaNota.ru - самый крупный в мире бесплатный архив песенных текстов, аккордов, табулатур и нот


Paul Gilbert - Four Seasons - таба, видео

Регистрация Запомнить меня
Войти через:  Facebook Google Twitter Vk Yandex Mail.ru

Paul Gilbert - Four Seasons - таба, видео

Печатать
Просмотров: 265
Paul Gilbert
Four seasons

                                                    
The whole song uses tapping technique


                                                 
E||--16p9h12-16p12p9-16p9h12-16p12p9-16p9h12-16p|
B||---------------------------------------------|
G||---------------------------------------------|
D||---------------------------------------------|
A||---------------------------------------------|
E||---------------------------------------------|


                                             
--12p9-16p9h12-16p12p9-14p7h11-14p11p7-14p7h|
--------------------------------------------|
--------------------------------------------|
--------------------------------------------|
--------------------------------------------|
--------------------------------------------|


                                          
--11-14p11p7-12p5h9-12p9p5-12p5h9-12p9p5-|
-----------------------------------------|
-----------------------------------------|
-----------------------------------------|
-----------------------------------------|
-----------------------------------------|


                                                                               
--12p4h7-12p7p4-12p4h7-12p7p4-11p2h5-11p|--5p2-11p2h5-11p5p2-9p0h4-9p4p0-12p4h|
----------------------------------------|-------------------------------------|
----------------------------------------|-------------------------------------|
----------------------------------------|-------------------------------------|
----------------------------------------|-------------------------------------|
----------------------------------------|-------------------------------------|


                                        
--9-12p9p4-11p4h8-11p8p4-11p4h8-11p8p4-|
---------------------------------------|
---------------------------------------|
---------------------------------------|
---------------------------------------|
---------------------------------------|


                                         
--14p5h9-14p9p5-14p5h9-14p9p5-12p5h9-12p|
----------------------------------------|
----------------------------------------|
----------------------------------------|
----------------------------------------|
----------------------------------------|


                                                                                
--9p5-11p5h9-11p9p5-12p4h9-12p9p4-12p4h|--9-12p9p4-11p4h8-11p8p4-11p4h8-11p8p4-|
---------------------------------------|---------------------------------------|
---------------------------------------|---------------------------------------|
---------------------------------------|---------------------------------------|
---------------------------------------|---------------------------------------|
---------------------------------------|---------------------------------------|


                                                                         
--9p2h5-9p5p2-9p2h5-9p5p2-7p0h4-7p|--4p0-7p0h4-7p4p0/-------------------|
----------------------------------|------------------12p0h4-12p4p0-12p0h|
----------------------------------|-------------------------------------|
----------------------------------|-------------------------------------|
----------------------------------|-------------------------------------|
----------------------------------|-------------------------------------|


                                                                             
---------------------------------------|--------------------------12p5h9-12p|
--4-12p4p0-10p2h5-10p5p2-10p2h5-10p5p2-|--9p0h5-9p5p0-9p0h5-9p5p0-----------|
---------------------------------------|------------------------------------|
---------------------------------------|------------------------------------|
---------------------------------------|------------------------------------|
---------------------------------------|------------------------------------|


                                                                                
--9p5-12p5h9-12p9p5-12p4h9-12p9p4-12p4h|--9-12p9p4-11p4h8-11p8p4-11p4h8-11p8p4-|
---------------------------------------|---------------------------------------|
---------------------------------------|---------------------------------------|
---------------------------------------|---------------------------------------|
---------------------------------------|---------------------------------------|
---------------------------------------|---------------------------------------|


                                                                             
--11p4h8-11p8p4-11p4h8-11p8p4-8p4h8-11p|--8p4-8p4h8-11p8p4-8p4h8-11p8p4-8p4h|
---------------------------------------|------------------------------------|
---------------------------------------|------------------------------------|
---------------------------------------|------------------------------------|
---------------------------------------|------------------------------------|
---------------------------------------|------------------------------------|


                                             
--8-11p8p4--------------|------------------||
------------------------|------------------||
-----------6~-----------|------------------||
-----------6~-----------|------------------||
-----------4~-----------|------------------||
------------------------|------------------||



Tabbed by Ed_Hunter
Добавлено: 26.07.2012
Другие материалы по этой песне:

Страница создана 08.03.2012
http://primanota.ru/paul-gilbert/four-seasons-chords.htm
Привет, Гость.
Предлагаем пройти революционный курс по гитаре.
Подарок от PrimaNota.Ru, забирай!