PrimaNota.ru - самый крупный в мире бесплатный архив песенных текстов, аккордов, табулатур и нот


Paul Butterfield Blues Band - I got a mind to give up living - бас-таба, видео

Регистрация Запомнить меня
Войти через:  Facebook Google Twitter Vk Yandex Mail.ru

Paul Butterfield Blues Band - I got a mind to give up living - бас-таба, видео

Печатать
Просмотров: 82
Уроки эстрадного вокала в Санкт-Петербурге


I Got A Mind To Give Up Living.btab
Paul Butterfield Blues Band
TablEdited by Poppamies
Tuning : E A D G 	Time Signature: 6/8

 |           |            tempo 100   |            |           |
|------------------------|------------------------|------------------------|
|------------------------|------------0-------4---|----------------0---4---|
|------------------------|2-------2---------------|2-------2---2-----------|
|------------------------|------------------------|------------------------|

 |           |            |           |            |           |
|------------0-------4---|----------------0---4---|------------------------|
|2-------2---------------|2-------2---2-----------|------------0-------4---|
|------------------------|------------------------|2-------2---------------|
|------------------------|------------------------|------------------------|

 |           |            |           |            |           |
|------------------------|------------------------|------------------------|
|----------------0---4---|------------0-------4---|----------------0---4---|
|2-------2---2-----------|2-------2---------------|2-------2---2-----------|
|------------------------|------------------------|------------------------|

 |           |            |           |            |           |
|------------0-------4---|----------------0---4---|------------0-------4---|
|2-------2---------------|2-------2---2-----------|2-------2---------------|
|------------------------|------------------------|------------------------|
|------------------------|------------------------|------------------------|

 |           |            |           |            |           |
|----------------0---4---|------------------------|------------------------|
|2-------2---2-----------|------------0-------4---|----------------0---4---|
|------------------------|2-------2---------------|2-------2---2-----------|
|------------------------|------------------------|------------------------|

 |           |            |           |            |           |
|------------------------|------------------------|------------------------|
|------------0-------4---|----------------2---3---|4-------4---4-----------|
|2-------2---------------|2-------2---2-----------|------------------------|
|------------------------|------------------------|------------------------|

 |           |            |           |            |           |
|------------------------|------------------------|------------------------|
|------------4---4---3---|2-------2---2-----------|------------2-------4---|
|4-----------------------|------------------------|2-----------------------|
|------------------------|------------------------|------------------------|

 |           |            |           |            |           |
|------------------------|------------0-------4---|------------------------|
|------------0-------4---|2-------2---------------|----------------2---3---|
|2-------2---------------|------------------------|2-------2---2-----------|
|------------------------|------------------------|------------------------|

 |           |            |           |            |           |
|------------------------|------------------------|------------------------|
|4-------4---2---3---4---|------------0-------4---|----------------0---4---|
|------------------------|2-------2---------------|2-------2---2-----------|
|------------------------|------------------------|------------------------|

 |           |            |           |            |           |
|------------0-------4---|----------------0---4---|------------------------|
|2-------2---------------|2-------2---2-----------|------------------------|
|------------------------|------------------------|------------------------|
|------------------------|------------------------|------------------------|

Transcribe  6.0 transcription http://www.seventhstring.demon.co.uk/
Created with TablEdit http://www.tabledit.com/
http://www.geocities.com/jani_bjorklund/janis.html

Добавлено: 20.08.2013
Другие материалы по этой песне:
  • Аккорды и текст

Страница создана 20.08.2013
http://primanota.ru/paul-butterfield-blues-band/i-got-a-mind-to-give-up-living-chords.htm
Привет, Гость.
Предлагаем пройти революционный курс по гитаре.
Подарок от PrimaNota.Ru, забирай!