PrimaNota.ru - самый крупный в мире бесплатный архив песенных текстов, аккордов, табулатур и нот


Paul Butterfield Blues Band - Born In Chicago - таба, бас-таба, видео

Регистрация Запомнить меня
Войти через:  Facebook Google Twitter Vk Yandex Mail.ru

Paul Butterfield Blues Band - Born In Chicago - таба, бас-таба, видео

Печатать
Просмотров: 98
Уроки эстрадного вокала в Санкт-Петербурге
Авторы музыки: Nick Gravenites

BORN IN CHICAGO

As recorded by The Paul Butterfield Blues Band
(From the 1965 Album THE PAUL BUTTERFIELD BLUES BAND)

Words and Music by Nick Gravenites

Transcribed by Slowhand


Gtr I (E A D G B E) - 'Elvin Bishop - Electric Guitar'
Gtr II (E A D G B E) - 'Mike Bloomfield - Electric Guitar'
Gtr III (E A D G B E) - 'Mike Bloomfield - Electric Guitar'


 Intro
  Q=158
                   A7
 4/4
  Gtr I
  W                E E E E H           E E E E H
|----------------|-5-----5-----------|-5-----5------------|
|----------------|-8-----8-----------|-8-----8------------|
|----------------|-6-----6-----------|-6-----6------------|
|----------------|-5-----5-----------|-5-----5------------|
|----------------|-7-----7-----------|-7-----7------------|
|----------------|-5-----5-----------|-5-----5------------|
|
| Gtr II
| H    E a E E E   E E E E E a E E E   E E E E E a E E E
|----------------|-------------------|--------------------|
|----------------|-------------------|--------------------|
|----------------|-------------------|--------------------|
|------------5-6-|-7-----7-------5-6-|-7-----7-------5-6--|
|--------5s7-----|-----------5s7-----|-----------5s7------|
|----------------|-------------------|--------------------|


                                          D7
  E E E E H           E E E E H            E E E  E H
|-5-----5-----------|-5-----5-----------|-10-----10-----------|
|-8-----8-----------|-8-----8-----------|-13-----13-----------|
|-6-----6-----------|-6-----6-----------|-11-----11-----------|
|-5-----5-----------|-5-----5-----------|-10-----10-----------|
|-7-----7-----------|-7-----7-----------|-12-----12-----------|
|-5-----5-----------|-5-----5-----------|-10-----10-----------|
|
| E E E E E a E E E   E E E E E a E E E    E E E  E E a E E E
|-------------------|-------------------|---------------------|
|-------------------|-------------------|---------------------|
|-------------------|-------------------|---------------------|
|-7-----7-------5-6-|-7-----7-----------|---------------------|
|-----------5s7-----|---------------3-4-|--5------5-------3-4-|
|-------------------|-----------3s5-----|-------------3s5-----|


                        A7
   E E E  E H           E E E E H           E E E E H
|-10-----10-----------|-5-----5-----------|-5-----5-----------|
|-13-----13-----------|-8-----8-----------|-8-----8-----------|
|-11-----11-----------|-6-----6-----------|-6-----6-----------|
|-10-----10-----------|-5-----5-----------|-5-----5-----------|
|-12-----12-----------|-7-----7-----------|-7-----7-----------|
|-10-----10-----------|-5-----5-----------|-5-----5-----------|
|
|  E E E  E E a E E E   E E E E E a E E E   E E E E E a E E E
|---------------------|-------------------|-------------------|
|---------------------|-------------------|-------------------|
|---------------------|-------------------|-------------------|
|-----------------5-6-|-7-----7-------5-6-|-7-----7-----------|
|--5------5---5s7-----|-----------5s7-----|---------------5-6-|
|---------------------|-------------------|-----------5s7-----|


  E7                    D7
   E E E  E H            E E E  E H
|-12-----12-----------|-10-----10-----------|
|-15-----15-----------|-13-----13-----------|
|-13-----13-----------|-11-----11-----------|
|-12-----12-----------|-10-----10-----------|
|-14-----14-----------|-12-----12-----------|
|-12-----12-----------|-10-----10-----------|
|
|  E E E  E E a E E E    E E E  E E a E E E
|---------------------|---------------------|
|---------------------|---------------------|
|---------------------|---------------------|
|---------------------|-----------------5-6-|
|--7------7-------3-4-|--5------5---5s7-----|
|-------------3s5-----|---------------------|


  A7
  E E E E H           E E E E H
|-5-----5-----------|-5-----5------------||
|-8-----8-----------|-8-----8------------||
|-6-----6-----------|-6-----6------------||
|-5-----5-----------|-5-----5------------||
|-7-----7-----------|-7-----7------------||
|-5-----5-----------|-5-----5------------||
|
| E E E E E a E E E   E E E E E a E E E
|-------------------|--------------------||
|-------------------|--------------------||
|-------------------|--------------------||
|-7-----7-------5-6-|-7-----7-------5-6--||
|-----------5s7-----|-----------5s7------||
|-------------------|--------------------||


 1st Verse
  A7
  E E E E H           E E E E H           E E   E E H        E E   E E H
|-5-----5-----------|-5-----5-----------|-5-------5--------|-5-------5---------|
|-8-----8-----------|-8-----8-----------|-8-------8--------|-8-------8---------|
|-6-----6-----------|-6-----6-----------|-6-------6--------|-6-------6---------|
|-5-----5-----------|-5-----5-----------|-5-------5--------|-5-------5---------|
|-7-----7-----------|-7-----7-----------|-7-------7--------|-7-------7---------|
|-5-----5-----------|-5-----5-----------|-5-------5--------|-5-------5---------|
|
| E E E E E a E E E   E E E E E a E E E   E Q     E Q  E E   E Q     E Q  E E
|-------------------|-------------------|------------------|-------------------|
|-------------------|-------------------|------------------|-------------------|
|-------------------|-------------------|---7b9---7-5------|---7b9---7-5-------|
|---------------5-6-|---------------5-7-|--------------7-5-|--------------7-5--|
|-5-----5---5s7-----|-5-----5---5s7-----|------------------|-------------------|
|-------------------|-------------------|------------------|-------------------|


  D7
   E E E  E H            E E E  E H
|-10-----10-----------|-10-----10------|
|-13-----13-----------|-13-----13------|
|-11-----11-----------|-11-----11------|
|-10-----10-----------|-10-----10------|
|-12-----12-----------|-12-----12------|
|-10-----10-----------|-10-----10------|
|
|  E E E  E E a E E E    E E E  E H
|---------------------|----------------|
|---------------------|----------------|
|---------------------|----------------|
|--4------4-----------|----------------|
|--5------5-------3-4-|--5------5------|
|-------------3s5-----|----------------|


  A7
  E E      E  E  H             E  E E   E H
|-5-----------5-------------|--5--------5----------|
|-8-----------8-------------|--8--------8----------|
|-6-----------6-------------|--6--------6----------|
|-5-----------5-------------|--5--------5----------|
|-7-----------7-------------|--7--------7----------|
|-5-----------5-------------|--5--------5----------|
|
| E E     +Q    +E  E E E     +Q    S S E E E E E
|-------------------5-------|-------------5--------|
|---8b10==(8)r==(8)---------|----------------------|
|-----------------------7b9-|-(7)---7p5-----5------|
|---------------------------|-----------7-----7-5--|
|---------------------------|----------------------|
|---------------------------|----------------------|


  E7                    D7
   E E E  E H            E E E  E H
|-12-----12-----------|-10-----10--------|
|-15-----15-----------|-13-----13--------|
|-13-----13-----------|-11-----11--------|
|-12-----12-----------|-10-----10--------|
|-14-----14-----------|-12-----12--------|
|-12-----12-----------|-10-----10--------|
|
|                                 |-3-|
|  E E E  E E a E E E    E E E  E Q Q Q
|---------------------|------------------|
|---------------------|------------------|
|---------------------|------------------|
|---------------------|-------------5-5--|
|--7------7-------3-4-|--5------5--------|
|-------------3s5-----|------------------|


    A7
    E E E E H          E E E E  H
|---5-----5--------|---5-----5-----------||
|---8-----8--------|---8-----8-----------||
|---6-----6--------|---6-----6-----------||
|---5-----5--------|---5-----5-----------||
|---7-----7--------|---7-----7-----------||
|---5-----5--------|---5-----5-----------||
|
|           |-3-|
| a H       Q Q Q    a H       +E  E E E
|------------------|---------------------||
|------------------|---------------------||
|------------------|---------------------||
|-5h7---------5-5--|-5h7-------(7)---5-6-||
|------------------|---------------7-----||
|------------------|---------------------||


 2nd Verse
  A7
  E E E E H           E E E E H
|-5-----5-----------|-5-----5------|
|-8-----8-----------|-8-----8------|
|-6-----6-----------|-6-----6------|
|-5-----5-----------|-5-----5------|
|-7-----7-----------|-7-----7------|
|-5-----5-----------|-5-----5------|
|
| E E E E E a E E E   E E E E H
|-------------------|--------------|
|-------------------|--------------|
|-------------------|--------------|
|-7-----7-------5-6-|-7-----7------|
|-----------5s7-----|--------------|
|-------------------|--------------|


  E E   E  E  H           E   E   E   E        H
|-5--------5------------|-5-----------5-----------------|
|-8--------8------------|-8-----------8-----------------|
|-6--------6------------|-6-----------6-----------------|
|-5--------5------------|-5-----------5-----------------|
|-7--------7------------|-7-----------7-----------------|
|-5--------5------------|-5-----------5-----------------|
|
|                         |--3--| |---3----|
| E Q     +E  S S E E E   E E   E E E   a  E  +Q   Q
|-----------------------|-------5------------------8\---|
|-----------------------|---5-----8-5---8s10-(10)-------|
|---7b9---(7)-7p5---5-5-|-8-----------------------------|
|-----------------7-----|-------------------------------|
|-----------------------|-------------------------------|
|-----------------------|-------------------------------|


  D7
   E E E  E H            E E E  E H
|-10-----10-----------|-10-----10------|
|-13-----13-----------|-13-----13------|
|-11-----11-----------|-11-----11------|
|-10-----10-----------|-10-----10------|
|-12-----12-----------|-12-----12------|
|-10-----10-----------|-10-----10------|
|
|  E E E  E E a E E E    E E E  E H
|---------------------|----------------|
|---------------------|----------------|
|--5------5-----------|---------5------|
|-----------------5-6-|----------------|
|--5------5---5s7-----|--5------5------|
|---------------------|----------------|


  A7
  E E   E  E  H         E E   E  E  H
|-5--------5----------|-5--------5----------|
|-8--------8----------|-8--------8----------|
|-6--------6----------|-6--------6----------|
|-5--------5----------|-5--------5----------|
|-7--------7----------|-7--------7----------|
|-5--------5----------|-5--------5----------|
|
| E Q     +E  E E E E   E Q     +E  E E E E
|---------------------|---------------------|
|---------------------|---------------------|
|---7b9---(7)-7-5-7-5-|---7b9---(7)-7-5-----|
|---------------------|-----------------7-5-|
|---------------------|---------------------|
|---------------------|---------------------|


  E7
   E E E  E H            E E E  E H
|-12-----12-----------|-10-----10--------|
|-15-----15-----------|-13-----13--------|
|-13-----13-----------|-11-----11--------|
|-12-----12-----------|-10-----10--------|
|-14-----14-----------|-12-----12--------|
|-12-----12-----------|-10-----10--------|
|
|                                 |-3-|
|  E E E  E E a E E E    E E E  E Q Q Q
|---------------------|------------------|
|---------------------|------------------|
|---------------------|------------------|
|---------------------|-------------5-5--|
|--7------7-------3-4-|--5------5--------|
|-------------3s5-----|------------------|


    A7
    E E E E H          E E E E  H
|---5-----5--------|---5-----5-----------||
|---8-----8--------|---8-----8-----------||
|---6-----6--------|---6-----6-----------||
|---5-----5--------|---5-----5-----------||
|---7-----7--------|---7-----7-----------||
|---5-----5--------|---5-----5-----------||
|
|           |-3-|
| a H       Q Q Q    a H       +E  E E E
|------------------|---------------------||
|------------------|---------------------||
|------------------|---------------------||
|-5h7---------5-5--|-5h7-------(7)---5-6-||
|------------------|---------------7-----||
|------------------|---------------------||


 Harmonica Solo
  A7
  E E E E H           E E E E H
|-5-----5-----------|-5-----5-----------|
|-8-----8-----------|-8-----8-----------|
|-6-----6-----------|-6-----6-----------|
|-5-----5-----------|-5-----5-----------|
|-7-----7-----------|-7-----7-----------|
|-5-----5-----------|-5-----5-----------|
|
| E E E E E a E E E   E E E E E a E E E
|-------------------|-------------------|
|-------------------|-------------------|
|-------------------|-------------------|
|-7-----7-------5-6-|-7-----7-------5-6-|
|-----------5s7-----|-----------5s7-----|
|-------------------|-------------------|


  E E E E H           E E E E H
|-5-----5-----------|-5-----5------------|
|-8-----8-----------|-8-----8------------|
|-6-----6-----------|-6-----6------------|
|-5-----5-----------|-5-----5------------|
|-7-----7-----------|-7-----7------------|
|-5-----5-----------|-5-----5------------|
|
| E E E E E a E E E   E E E E E a E E E
|-------------------|--------------------|
|-------------------|--------------------|
|-------------------|--------------------|
|-7-----7-------5-6-|-7-----7------------|
|-----------5s7-----|---------------3-4--|
|-------------------|-----------3s5------|


  D7
   E E E  E H            E E E  E H
|-10-----10-----------|-10-----10-----------|
|-13-----13-----------|-13-----13-----------|
|-11-----11-----------|-11-----11-----------|
|-10-----10-----------|-10-----10-----------|
|-12-----12-----------|-12-----12-----------|
|-10-----10-----------|-10-----10-----------|
|
|  E E E  E E a E E E    E E E  E E a E E E
|---------------------|---------------------|
|---------------------|---------------------|
|---------------------|---------------------|
|---------------------|-----------------5-6-|
|--5------5-------3-4-|--5------5---5s7-----|
|-------------3s5-----|---------------------|


  A7
  E E E E H           E E E E H
|-5-----5-----------|-5-----5------------|
|-8-----8-----------|-8-----8------------|
|-6-----6-----------|-6-----6------------|
|-5-----5-----------|-5-----5------------|
|-7-----7-----------|-7-----7------------|
|-5-----5-----------|-5-----5------------|
|
| E E E E E a E E E   E E E E E a E E E
|-------------------|--------------------|
|-------------------|--------------------|
|-------------------|--------------------|
|-7-----7-------5-6-|-7-----7------------|
|-----------5s7-----|---------------5-6--|
|-------------------|-----------5s7------|


  E7                    D7
   E E E  E H            E E E  E H
|-12-----12-----------|-10-----10-----------|
|-15-----15-----------|-13-----13-----------|
|-13-----13-----------|-11-----11-----------|
|-12-----12-----------|-10-----10-----------|
|-14-----14-----------|-12-----12-----------|
|-12-----12-----------|-10-----10-----------|
|
|  E E E  E E a E E E    E E E  E E a E E E
|---------------------|---------------------|
|---------------------|---------------------|
|---------------------|---------------------|
|---------------------|-----------------5-6-|
|--7------7-------3-4-|--5------5---5s7-----|
|-------------3s5-----|---------------------|


  A7
  E E E E H           E E E E H
|-5-----5-----------|-5-----5------------||
|-8-----8-----------|-8-----8------------||
|-6-----6-----------|-6-----6------------||
|-5-----5-----------|-5-----5------------||
|-7-----7-----------|-7-----7------------||
|-5-----5-----------|-5-----5------------||
|
| E E E E E a E E E   E E E E E a E E E
|-------------------|--------------------||
|-------------------|--------------------||
|-------------------|--------------------||
|-7-----7-------5-6-|-7-----7-------5-6--||
|-----------5s7-----|-----------5s7------||
|-------------------|--------------------||


 3rd Verse
  A7
  E E E E H           E E E E  H
|-5-----5-----------|-5-----5-------|
|-8-----8-----------|-8-----8-------|
|-6-----6-----------|-6-----6-------|
|-5-----5-----------|-5-----5-------|
|-7-----7-----------|-7-----7-------|
|-5-----5-----------|-5-----5-------|
|
| PM------------------|
| E E E E E a E E E   E E E E  H
|-------------------|---------------|
|-------------------|---------------|
|-------------------|---------------|
|-7-----7-------5-6-|-7-----7\------|
|-----------5s7-----|---------------|
|-------------------|---------------|


  E  E    E   E   H               E E       E    E  H
|-5-----------5-----------------|-5--------------5-----------|
|-8-----------8-----------------|-8--------------8-----------|
|-6-----------6-----------------|-6--------------6-----------|
|-5-----------5-----------------|-5--------------5-----------|
|-7-----------7-----------------|-7--------------7-----------|
|-5-----------5-----------------|-5--------------5-----------|
|
|                                 |-----3------|    |3-|
| E  Q       +E   S  S  E  E  E   Q    Q       Q    Q  H
|-------------------------------|----------------------------|
|---15b17---(15)-15p13----13----|-----15b17---15---13--------|
|----------------------14----14-|---------------------14\----|
|-------------------------------|----------------------------|
|-------------------------------|----------------------------|
|-------------------------------|----------------------------|


  D7                                     A7
   E E E  E H            E E E  E H      E E       E       E     H
|-10-----10-----------|-10-----10------|-5-----------------5-------------------|
|-13-----13-----------|-13-----13------|-8-----------------8-------------------|
|-11-----11-----------|-11-----11------|-6-----------------6-------------------|
|-10-----10-----------|-10-----10------|-5-----------------5-------------------|
|-12-----12-----------|-12-----12------|-7-----------------7-------------------|
|-10-----10-----------|-10-----10------|-5-----------------5-------------------|
|
|                                        |-------3-------|       |-----3-----|
|  E E E  E E a E E E    E E E  E H      Q    a  Q    a  Q    a  Q  a  Q  a  Q
|---------------------|----------------|--------15------15------15----15----15-|
|---------------------|----------------|-----15h17---15h17---15h17-15h17-15h17-|
|--5------------------|----------------|---------------------------------------|
|--4------4-----------|----------------|---------------------------------------|
|--5------5-------3-4-|--5------5------|---------------------------------------|
|-------------3s5-----|----------------|---------------------------------------|


      E E       E       E     H
|-----5-----------------5---------------|
|-----8-----------------8---------------|
|-----6-----------------6---------------|
|-----5-----------------5---------------|
|-----7-----------------7---------------|
|-----5-----------------5---------------|
|
|     |-------3-------|       |--3--|
|  a  Q    a  Q    a  Q    a  Q  Q  Q
|----15------15------15------15-15\-----|
|-15h17---15h17---15h17---15h17-15\-----|
|---------------------------------------|
|---------------------------------------|
|---------------------------------------|
|---------------------------------------|


  E7                    D7
   E E E  E H            E E E  E H
|-12-----12-----------|-10-----10--------|
|-15-----15-----------|-13-----13--------|
|-13-----13-----------|-11-----11--------|
|-12-----12-----------|-10-----10--------|
|-14-----14-----------|-12-----12--------|
|-12-----12-----------|-10-----10--------|
|
|                                 |-3-|
|  E E E  E E a E E E    E E E  E Q Q Q
|---------------------|------------------|
|---------------------|------------------|
|---------------------|------------------|
|---------------------|---------4---5-5--|
|--7------7-------3-4-|--5------5--------|
|-------------3s5-----|------------------|


    A7
    E E E E  H           E E E E H
|---5-----5----------|---5-----5-------------||
|---8-----8----------|---8-----8-------------||
|---6-----6----------|---6-----6-------------||
|---5-----5----------|---5-----5-------------||
|---7-----7----------|---7-----7-------------||
|---5-----5----------|---5-----5-------------||
|
| Gtr III
|            |-3--|
| a H       +Q  Q Q    a H       E Q     +E
|--------------------|-----------------------||
|--------------------|-----------------------||
|--------------------|-------------7b9===(7)-||
|-5h7-------(7)-5-5--|-5h7-------------------||
|--------------------|-----------------------||
|--------------------|-----------------------||


 Guitar Solo
  A7
   E  E     E E H         E E     E       E   H
|--5----------5---------|-5---------------5-----------|
|--8----------8---------|-8---------------8-----------|
|--6----------6---------|-6---------------6-----------|
|--5----------5---------|-5---------------5-----------|
|--7----------7---------|-7---------------7-----------|
|--5----------5---------|-5---------------5-----------|
|
|  E.   +S  E E E E E E   E E    +S   E     S E E E E
|-----------------------|-----------------------------|
|--5--------------------|-----------------------------|
|-(7)r==(7)-7-5-7-5-----|---7b9==(7)r-7b8---5-7-5-----|
|-------------------7-5-|-0-----------------------7-5-|
|-----------------------|-----------------------------|
|-----------------------|-----------------------------|


  E   E    E    E      H
|-5-------------5---------------------|
|-8-------------8---------------------|
|-6-------------6---------------------|
|-5-------------5---------------------|
|-7-------------7---------------------|
|-5-------------5---------------------|
|
|          |--3---|    |-3--|
| E   S S +E  E   E a  E E  E E  E
|-------5-(5)-----5------0----0-10b11-|
|-----5-------0-----9s10---10---------|
|-7b8---------------------------------|
|-------------------------------------|
|-------------------------------------|
|-------------------------------------|


    E   E E  E    H
|---5--------5-------------------|
|---8--------8-------------------|
|---6--------6-------------------|
|---5--------5-------------------|
|---7--------7-------------------|
|---5--------5-------------------|
|
|                 |-3--| |3-|
|  +E   E E  S S  E E  E E  Q
|-(10)-10-8-10-8----8----8-10b11-|
|----------------10---10---------|
|--------------------------------|
|--------------------------------|
|--------------------------------|
|--------------------------------|


  D7
    E   E E      E   H        E E  E  E  H
|--10-----------10---------|-10------10-----------------|
|--13-----------13---------|-13------13-----------------|
|--11-----------11---------|-11------11-----------------|
|--10-----------10---------|-10------10-----------------|
|--12-----------12---------|-12------12-----------------|
|--10-----------10---------|-10------10-----------------|
|
|            ~~~~~~~~~~~
|  +E   E S  E.     +H        E E  E  E +E   E    +E  E
|-(10)-10-8----------------|----------8-(8)\------------|
|-----------10-----(10)----|----8-10---------8b10-(8)-8-|
|--------------------------|----------------------------|
|--------------------------|----------------------------|
|--------------------------|----------------------------|
|--------------------------|----------------------------|


  A7
   E  E  E    E   H              E  E E   E      H
|--5----------5---------------|--5--------5------------------------|
|--8----------8---------------|--8--------8------------------------|
|--6----------6---------------|--6--------6------------------------|
|--5----------5---------------|--5--------5------------------------|
|--7----------7---------------|--7--------7------------------------|
|--5----------5---------------|--5--------5------------------------|
|
|        |--3---| |---3---|           |---3---|         |--3--|
| +E  E +E  E   E E E E E Q     +E  E E E   a E +E   E  E  E  E
|-----5-(5)-------------------|---------------------12----12-15b17-|
|-(8)-------------------------|------------------------15----------|
|-----------7p==5-7p5-7p5-7b9-|-(7)-----5---5s9-(9)----------------|
|-----------------------------|-------7----------------------------|
|-----------------------------|------------------------------------|
|-----------------------------|------------------------------------|


  E7
    E  E  E     E     H
|--12----------12-----------------|
|--15----------15-----------------|
|--13----------13-----------------|
|--12----------12-----------------|
|--14----------14-----------------|
|--12----------12-----------------|
|
|         |---3----|  |3-|
|  +Q     E  E     E  E  Q  a E E
|-(15)---15-12----15-12-----------|
|-----------------------15\-------|
|-------------------------------5-|
|---------------------------5s7---|
|---------------------------------|
|---------------------------------|


  D7                        A7
   E    E  E    E H         E E E E H         E E    E E  H
|-10-----------10---------|-5-----5---------|-5--------5------------||
|-13-----------13---------|-8-----8---------|-8--------8------------||
|-11-----------11---------|-6-----6---------|-6--------6------------||
|-10-----------10---------|-5-----5---------|-5--------5------------||
|-12-----------12---------|-7-----7---------|-7--------7------------||
|-10-----------10---------|-5-----5---------|-5--------5------------||
|
|  E   +E  S S  E E E E E   Q   E E E E E E   E E    E E  S S E E E
|-------------------------|-----------------|-----------------------||
|-------------------------|-----------------|--------5-5------------||
|--7b8-(7)-7p5----5-5-7-5-|-----5---5---5---|-5-7b9====7r-7p5-------||
|---------------7---------|-7-----7---7---7-|-------------------5-6-||
|-------------------------|-----------------|-----------------7-----||
|-------------------------|-----------------|-----------------------||


 4th Verse
  A7
  E E E E H           E E E E H
|-5-----5-----------|-5-----5------|
|-8-----8-----------|-8-----8------|
|-6-----6-----------|-6-----6------|
|-5-----5-----------|-5-----5------|
|-7-----7-----------|-7-----7------|
|-5-----5-----------|-5-----5------|
|
| E E E E E a E E E   E E E E H
|-------------------|--------------|
|-------------------|--------------|
|-------------------|--------------|
|-7-----7-------5-6-|-7-----7------|
|-----------5s7-----|--------------|
|-------------------|--------------|


  E E     E  E H         E  E E E  H
|-5----------5--------|--5------5------------|
|-8----------8--------|--8------8------------|
|-6----------6--------|--6------6------------|
|-5----------5--------|--5------5------------|
|-7----------7--------|--7------7------------|
|-5----------5--------|--5------5------------|
|
|              ~~~~~~~~~~~~~~~~~~~~
|              |-3-|
| E E    +Q    Q Q Q    +E  Q   E  S E. +Q
|---------------------|----------------------|
|---------------------|----------------------|
|---7b9==(7)---7-7-7--|-(7)-7---7r-7p5--(5)--|
|---------------------|----------------------|
|---------------------|----------------------|
|---------------------|----------------------|


  D7
   E E E  E  H         E E E  E H
|-10-----10---------|-10-----10------|
|-13-----13---------|-13-----13------|
|-11-----11---------|-11-----11------|
|-10-----10---------|-10-----10------|
|-12-----12---------|-12-----12------|
|-10-----10---------|-10-----10------|
|
|                     Gtr II
|  Q   E  E +Q   Q     W
|-------------------|----------------|
|-------------------|----------------|
|-------------------|----------------|
|-------------------|----------------|
|--5------5-(5)-----|----------------|
|-------------------|----------------|


  A7
  E E    E  E H         E E    E  E H
|-5---------5---------|-5---------5----------|
|-8---------8---------|-8---------8----------|
|-6---------6---------|-6---------6----------|
|-5---------5---------|-5---------5----------|
|-7---------7---------|-7---------7----------|
|-5---------5---------|-5---------5----------|
|
| E E   +Q    E E E E   E E   +Q    E E E E
|---------------------|----------------------|
|---------------------|----------------------|
|---7b9-(7)---7-5-----|---7b9-(7)---7-5------|
|-----------------7-5-|-----------------7-5--|
|---------------------|----------------------|
|---------------------|----------------------|


  E7                    D7
   E E E  E H            E E E  E H
|-12-----12-----------|-10-----10--------|
|-15-----15-----------|-13-----13--------|
|-13-----13-----------|-11-----11--------|
|-12-----12-----------|-10-----10--------|
|-14-----14-----------|-12-----12--------|
|-12-----12-----------|-10-----10--------|
|
|                                 |-3-|
|  E E E  E E a E E E    E E E  E Q Q Q
|---------------------|------------------|
|---------------------|------------------|
|---------------------|------------------|
|---------------------|-------------5-5--|
|--7------7-------3-4-|--5------5--------|
|-------------3s5-----|------------------|


    A7
    E E E E H          E E E E  H
|---5-----5--------|---5-----5-----------||
|---8-----8--------|---8-----8-----------||
|---6-----6--------|---6-----6-----------||
|---5-----5--------|---5-----5-----------||
|---7-----7--------|---7-----7-----------||
|---5-----5--------|---5-----5-----------||
|
|           |-3-|
| a H       Q Q Q    a H       +E  E E E
|------------------|---------------------||
|------------------|---------------------||
|------------------|---------------------||
|-5h7---------5-5--|-5h7-------(7)---5-6-||
|------------------|---------------7-----||
|------------------|---------------------||


 Outro-Guitar Solo
  A7
  E E E E H          E E     E   E H
|-5-----5----------|-5-----------5--------|
|-8-----8----------|-8-----------8--------|
|-6-----6----------|-6-----------6--------|
|-5-----5----------|-5-----------5--------|
|-7-----7----------|-7-----------7--------|
|-5-----5----------|-5-----------5--------|
|
|                    |----3----|
| E E E E E a E Q    Q   Q     Q   Q  E E
|------------------|----------------------|
|------------------|----------------------|
|------------------|-----7b8---7---5------|
|-7-----7-------5--|------------------7-5-|
|-----------5s7----|----------------------|
|------------------|----------------------|


  E E   E E H        E E   E E H
|-5-------5--------|-5-------5---------|
|-8-------8--------|-8-------8---------|
|-6-------6--------|-6-------6---------|
|-5-------5--------|-5-------5---------|
|-7-------7--------|-7-------7---------|
|-5-------5--------|-5-------5---------|
|
| E Q     E Q  E E   E Q     E E E E E
|------------------|-------------------|
|------------------|---------------8-5-|
|---7b9---7-5------|---7b9---7-5-------|
|--------------7-5-|-------------------|
|------------------|-------------------|
|------------------|-------------------|


  D7
     E E E  E   H         E  E E  E H
|---10-----10----------|-10------10-------|
|---13-----13----------|-13------13-------|
|---11-----11----------|-11------11-------|
|---10-----10----------|-10------10-------|
|---12-----12----------|-12------12-------|
|---10-----10----------|-10------10-------|
|
|                        Gtr III
| a  H         +Q.   E    H.           Q
|----------------------|------------------|
|-8s10--------(10)-----|-10---------------|
|----------------------|------------------|
|----------------------|------------------|
|----------------------|------------------|
|----------------------|------------------|


  A7
   E     E E E H               E    E E E H
|--5---------5--------------|--5--------5-------|
|--8---------8--------------|--8--------8-------|
|--6---------6--------------|--6--------6-------|
|--5---------5--------------|--5--------5-------|
|--7---------7--------------|--7--------7-------|
|--5---------5--------------|--5--------5-------|
|
|  H.              +E   +E     H.            Q
|---------------------------|-------------------|
|-15b17===========(15)r(15)-|-15b17-------------|
|---------------------------|-------------------|
|---------------------------|-------------------|
|---------------------------|-------------------|
|---------------------------|-------------------|


  E7                   D7
   E    E E  E H        E    E E  E H
|-12--------12-------|-10--------10-------|
|-15--------15-------|-13--------13-------|
|-13--------13-------|-11--------11-------|
|-12--------12-------|-10--------10-------|
|-14--------14-------|-12--------12-------|
|-12--------12-------|-10--------10-------|
|
|  H.             Q     H.             Q
|-15b17--------------|-15b17--------------|
|--------------------|--------------------|
|--------------------|--------------------|
|--------------------|--------------------|
|--------------------|--------------------|
|--------------------|--------------------|


  A7
  E    E E E H       E  E  E   E  H
|-5--------5------|--5---------5-------|
|-8--------8------|--8---------8-------|
|-6--------6------|--6---------6-------|
|-5--------5------|--5---------5-------|
|-7--------7------|--7---------7-------|
|-5--------5------|--5---------5-------|
|
| ~~~~~~~~~~~~~~~~~~~~~~
| W                 +Q    +E  +E  H
|-----------------|--------------------|
|-----------------|--------------------|
|-7b9=============|=(7)---(7)r(7)------|
|-----------------|--------------------|
|-----------------|--------------------|
|-----------------|--------------------|


   E    E  E  E       H                E  E    E  E  H
|--5----------5---------------------|--5----------5-----------------|
|--8----------8---------------------|--8----------8-----------------|
|--6----------6---------------------|--6----------6-----------------|
|--5----------5---------------------|--5----------5-----------------|
|--7----------7---------------------|--7----------7-----------------|
|--5----------5---------------------|--5----------5-----------------|
|
|  Q       E  E      +E    E  Q        E  Q       E  Q      E  E
|---------15--------------15--------|-15---------15--------15-------|
|-15b17------15b17==(15)r----15b17--|----15b17------15b17-----15b17-|
|-----------------------------------|-------------------------------|
|-----------------------------------|-------------------------------|
|-----------------------------------|-------------------------------|
|-----------------------------------|-------------------------------|


    E   E  E      E   H                  E      E   E  E      H
|---5-------------5-------------------|--5-------------5----------------|
|---8-------------8-------------------|--8-------------8----------------|
|---6-------------6-------------------|--6-------------6----------------|
|---5-------------5-------------------|--5-------------5----------------|
|---7-------------7-------------------|--7-------------7----------------|
|---5-------------5-------------------|--5-------------5----------------|
|
|  +E   E  E     +E   E  E     +E   E    E     +E   E  E     +E   E Q
|------15------------15------------15-|------------15------------15-----|
|-(15)----15b17-(15)----15b17-(15)----|-15b17-(15)----15b17-(15)--------|
|-------------------------------------|---------------------------------|
|-------------------------------------|---------------------------------|
|-------------------------------------|---------------------------------|
|-------------------------------------|---------------------------------|


  D7
   E    E E  E       H                    E  E      E   E  H
|-10--------10-------------------------|-10------------10----------------|
|-13--------13-------------------------|-13------------13----------------|
|-11--------11-------------------------|-11------------11----------------|
|-10--------10-------------------------|-10------------10----------------|
|-12--------12-------------------------|-12------------12----------------|
|-10--------10-------------------------|-10------------10----------------|
|
|  Q.        E      +E    E  E     +E     E  E     +E   E  E     +E   q
|------------------------17------------|-17------------17------------17--|
|-17b19-----17b19==(17)r----17b19-(17)-|----17b19-(17)----17b19-(17)-----|
|--------------------------------------|---------------------------------|
|--------------------------------------|---------------------------------|
|--------------------------------------|---------------------------------|
|--------------------------------------|---------------------------------|


  A7
   E      E   E  E      H                   E  E      E   E  H
|--5-------------5-----------------------|--5-------------5------------------|
|--8-------------8-----------------------|--8-------------8------------------|
|--6-------------6-----------------------|--6-------------6------------------|
|--5-------------5-----------------------|--5-------------5------------------|
|--7-------------7-----------------------|--7-------------7------------------|
|--5-------------5-----------------------|--5-------------5------------------|
|
|  E     +E   E  E     +E   E  E     +E     E  E     +E   E  E     +E   E E
|------------15------------15------------|-15------------15------------15----|
|-15b17-(15)----15b17-(15)----15b17-(15)-|----15b17-(15)----15b17-(15)-------|
|----------------------------------------|-----------------------------------|
|----------------------------------------|-----------------------------------|
|----------------------------------------|-----------------------------------|
|----------------------------------------|-----------------------------------|


  E7                      D7
     E  E E  E  H          E  E E  E  H
|---12------12----------|-10------10----------|
|---15------15----------|-13------13----------|
|---13------13----------|-11------11----------|
|---12------12----------|-10------10----------|
|---14------14----------|-12------12----------|
|---12------12----------|-10------10----------|
|
| a  Q.      E +E  Q  E    Q.      E +E  E Q
|-----------------------|---------------------|
|-3s=5-------5-(5)-5--5-|--3-------3-(3)-3----|
|-----------------------|---------------------|
|-----------------------|---------------------|
|-----------------------|---------------------|
|-----------------------|---------------------|


  A7
  E  E E E  H       E  E E E  H
|-5------5--------|-5------5---------|
|-8------8--------|-8------8---------|
|-6------6--------|-6------6---------|
|-5------5--------|-5------5---------|
|-7------7--------|-7------7---------|
|-5------5--------|-5------5---------|
|
| Q.     E +H       Q.     E +Q   Q
|-----------------|------------------|
|-----------------|------------------|
|-2------2-(2)----|-2------2-(2)-----|
|-----------------|------------------|
|-----------------|------------------|
|-----------------|------------------|


  E E   E E  H        E E   E E  H       E E   E E  H       E E   E E  H
|-5-------5---------|-5-------5--------|-5-------5--------|-5-------5--------|
|-8-------8---------|-8-------8--------|-8-------8--------|-8-------8--------|
|-6-------6---------|-6-------6--------|-6-------6--------|-6-------6--------|
|-5-------5---------|-5-------5--------|-5-------5--------|-5-------5--------|
|-7-------7---------|-7-------7--------|-7-------7--------|-7-------7--------|
|-5-------5---------|-5-------5--------|-5-------5--------|-5-------5--------|
|
| Q   a E E +Q   Q    Q   a E E +H       Q   a E E +H       Q   a E E +H
|-------------------|------------------|------------------|------------------|
|-------------------|-----5s7s5-(5)----|-----5s6s5-(5)----|-----5s7s5-(5)----|
|-------------------|------------------|------------------|------------------|
|-----5s7s5-(5)-----|-----5s7s5-(5)----|-----5s6s5-(5)----|-----5s7s5-(5)----|
|-------------------|------------------|------------------|------------------|
|-------------------|------------------|------------------|------------------|


  D7                                              A7
   E E     E  E   H        E E     E  E   H       E E   E E  H
|-10---------10---------|-10---------10---------|-5-------5--------|
|-13---------13---------|-13---------13---------|-8-------8--------|
|-11---------11---------|-11---------11---------|-6-------6--------|
|-10---------10---------|-10---------10---------|-5-------5--------|
|-12---------12---------|-12---------12---------|-7-------7--------|
|-10---------10---------|-10---------10---------|-5-------5--------|
|
|  Q    a  E  E  +H        Q    a  E  E  +H       Q   a E E +H
|-----------------------|-----------------------|------------------|
|------10s12s10-(10)----|------10s12s10-(10)----|-----5s7s5-(5)----|
|-----------------------|-----------------------|------------------|
|------10s12s10-(10)----|------10s12s10-(10)----|-----5s7s5-(5)----|
|-----------------------|-----------------------|------------------|
|-----------------------|-----------------------|------------------|


  E E   E E  H        E E     E  E   H        E E     E  E   H
|-5-------5--------|-12---------12---------|-10---------10---------*|
|-8-------8--------|-15---------15---------|-13---------13---------*|
|-6-------6--------|-13---------13---------|-11---------11---------*|
|-5-------5--------|-12---------12---------|-10---------10---------*|
|-7-------7--------|-14---------14---------|-12---------12---------*|
|-5-------5--------|-12---------12---------|-10---------10---------*|
|
| Q   a E E +H        Q    a  E  E  +H        Q    a  E  E  +H
|------------------|-----------------------|-----------------------*|
|-----5s7s5-(5)----|------12s14s12-(12)----|------10s12s10-(10)----*|
|------------------|-----------------------|-----------------------*|
|-----5s7s5-(5)----|------12s14s12-(12)----|------10s12s10-(10)----*|
|------------------|-----------------------|-----------------------*|
|------------------|-----------------------|-----------------------*|


Duration Legend
---------------
W - whole; H - half; Q - quarter; E - 8th; S - 16th; T - 32nd; X - 64th; a - acciaccatura
+ - note tied to previous; . - note dotted; .. - note double dotted
Uncapitalized letters represent notes that are staccato (1/2 duration)
Irregular groupings are notated above the duration line
Duration letters will always appear directly above the note/fret number it represents the
duration for.  Duration letters with no fret number below them represent rests.  Multi-
bar rests are notated in the form Wxn, where n is the number of bars to rest for.  Low
melody durations appear below the staff

Tablature Legend
----------------
 h   - hammer-on
 p   - pull-off
 b   - bend
 pb  - pre-bend
 r   - bend release (if no number after the r, then release immediately)
 /\  - slide into or out of (from/to "nowhere")
 s   - legato slide
 S   - shift slide
  - natural harmonic
[n]  - artificial harmonic
n(n) - tapped harmonic
 ~   - vibrato
 tr  - trill
 T   - tap
 TP  - trem. picking
 PM  - palm muting
\n/  - tremolo bar dip; n = amount to dip
 \n  - tremolo bar down
 n/  - tremolo bar up
/n\  - tremolo bar inverted dip
 =   - hold bend; also acts as connecting device for hammers/pulls
 <>  - volume swell (louder/softer)
 x   - on rhythm slash represents muted slash
 o   - on rhythm slash represents single note slash

Misc Legend
-----------
 |  - bar
||  - double bar
||o - repeat start
o|| - repeat end
*|  - double bar (ending)
 :  - bar (freetime)
 $  - Segno
 &  - Coda
Tempo markers -  = BPM(8/16=s8/s16), where s8 = swing 8ths, s16 = swing 16ths
Добавлено: 26.07.2015
Вам также может быть интересно:
Другие материалы по этой песне:

Страница создана 01.09.2014
http://primanota.ru/paul-butterfield-blues-band/born-in-chicago-chords.htm
Привет, Гость.
Предлагаем пройти революционный курс по гитаре.
Подарок от PrimaNota.Ru, забирай!