PrimaNota.ru - самый крупный в мире бесплатный архив песенных текстов, аккордов, табулатур и нот


Paul Butterfield Blues Band - Blues with a feeling - таба, видео

Регистрация Запомнить меня
Войти через:  Facebook Google Twitter Vk Yandex Mail.ru

Paul Butterfield Blues Band - Blues with a feeling - таба, видео

Печатать
Просмотров: 77
Авторы музыки: Marion Walter Jacobs
Авторы текста: Marion Walter Jacobs
BLUES WITH A FEELING

As recorded by Paul Butterfield Blues Band
(From the 1965 Album PAUL BUTTERFIELD BLUES BAND)

Words and Music by Walter Jacobs
Arranged by Paul Butterfield

Transcribed by Slowhand 


Gtr I (E A D G B E) - 'Mike Bloomfield - Electric Guitar'
Gtr II (E A D G B E) - 'Elvin Bishop - Electric Guitar'


   Intro
    Q=134
    G7                                         C7/G
   12/8
    Gtr I
    Q   E a E +E  E a E +E  H        3x     Q   E a E +E   E a E +Q    Q   E
||-----------------------------------||-||------------------------------------||
||o---------3-(3)-5---3-(3)---------o||-||o---------8-(8)-10---8-(8)---------o||
||--------3h4-(4)-5-3h4-(4)----------||-||--------8h9-(9)-10-8h9-(9)----------||
||------5-------------------5--------||-||-----10-----------------------------||
||o---------------------------------o||-||o----------------------------------o||
||-----------------------------------||-||------------------------------------||
|
|   Gtr II
|   E E E   E  E  E   E  E  E E E E  3x     Q   E   Q      E   E  E  E E E E
||--7-7-7---7--7--7---7--7--7-7-7-7--||-||--6---6---6------6---6--6--6-6-6-6--||
||o-6-6-6---6--6--6---6--6--6-6-6-6-o||-||o-5---5---5------5---5--5--5-5-5-5-o||
||--7-7-7---7--7--7---7--7--7-7-7-7--||-||--5---5---5------5---5--5--5-5-5-5--||
||--5-5-5---5--5--5---5--5--5-5-5-5--||-||--5---5---5------5---5--5--5-5-5-5--||
||o---------------------------------o||-||o----------------------------------o||
||-----------------------------------||-||------------------------------------||


    G7                                   D7/A           Am6
    Q   E a E +E  E a E +E  E Q.         Q  E a Q   a Q   +E  E Q.
||------------------------------------||------6s7---6s5---(5)-5-------|
||o---------3-(3)-5---3-(3)----------o||------6s7---6s5---(5)---7-----|
||--------3h4-(4)-5-3h4-(4)-----------||------6s7---6s5---(5)---5-----|
||------5-------------------5h7-------||------------------------7-----|
||o----------------------------------o||------------------------5-----|
||------------------------------------||------------------------------|
|
|   E E E   E  E  E   E  E  E E  E E     Q  E   E E   E Q     E Q   E
||--7-7-7---7--7--7---7--7--7-7--7-7--||----8---8-----8-5-----5-------|
||o-6-6-6---6--6--6---6--6--6-6--6-6-o||-7--7-----7---7-7-----7-7---7-|
||--7-7-7---7--7--7---7--7--7-7--7-7--||-7--7-----------5-----5-5---5-|
||--5-5-5---5--5--5---5--5--5-5--5-5--||-7--7-----------7-----7-7---7-|
||o----------------------------------o||------------------------------|
||------------------------------------||------------------------------|


  C/G            Gm6             N.C.
  Q  E a Q   a Q   +E  E Q.      Q.    E E   E S S E   E E E S S
|------4s5---4s3---(3)-3-------|-------------3--------------------|
|------4s5---4s3---(3)---5-----|---------3-----6p3-----3----------|
|------4s5---4s3---(3)---3-----|-------6-----------6-----5-3------|
|------------------------5-----|-5---------------------------5p3--|
|------------------------3-----|----------------------------------|
|------------------------------|----------------------------------|
|
| Q  E   E E   E Q     E Q   E   Q   E E S S E E   S S E E E E
|----6---6-----6-3-----3-------|----------------------------------|
|-5--5-----5-----5-----5-5---5-|-------6-6-6-6-5---5-5-5----------|
|-5--------------3-----3-3---3-|-------7-7-7-7-6---6-6-6-5-3------|
|-5--------------5-----5-5---5-|-5---5-----------------------5----|
|------------------------------|----------------------------------|
|------------------------------|----------------------------------|


                                     1st Verse
  G               D7                  G7
  Q     E Q     E Q     E E E   E     Q.     H       Q   E E E
|----------------------------------||----------------------3s5\-|
|---------------------------3s==5\-||-3--------------------3s5\-|
|---------------------------2s==4\-||-2--------------------3s5\-|
|-5-----5-3-----3-----------3s==5\-||-3-------------------------|
|-----------------5-----5----------||---------------------------|
|----------------------------------||---------------------------|
|
| E S S E E S S E E S S E E S S E     E  E E E E E E E E E E E
|----------------------------------||-7--7-7-7-7-7-7-7-7-7-7-7--|
|-3-3-3-3-3-3-3-3-3-3-3-3-3-3-3-3--||-6--6-6-6-6-6-6-6-6-6-6-6--|
|-4-4-4-4-4-4-4-4-5-5-5-5-5-5-5-5--||-7--7-7-7-7-7-7-7-7-7-7-7--|
|-5-5-5-5-5-5-5-5-4-4-4-4-4-4-4-4--||-5--5-5-5-5-5-5-5-5-5-5-5--|
|-----------------5-5-5-5-5-5-5-5--||---------------------------|
|----------------------------------||---------------------------|


      C7/G               G7
  H.         H      Q    S   S S S E S S S S S S S S S S S S E.   a S S S
|-3--------------------|-------3-----5-3-------------3---3---3--------6-8--|
|-3--------------------|-----3---6p3-----6p3-------3---6---6------7s8------|
|-3--------------------|-5b7-----------------6p0-6-------------------------|
|----------------------|---------------------------------------------------|
|----------------------|---------------------------------------------------|
|----------------------|---------------------------------------------------|
|
| Q   E Q  E Q  E E Q    E     E   E E   E   E   E   E   E   E  E     E
|-----6-6--6-6--6-6----|-7-----7---7-7---7---7---7---7---7---7--7-----7----|
|-----5-5--5-5--5-5----|-6-----6---6-6---6---6---6---6---6---6--6-----6----|
|-----5-5--5-5--5-5----|-7-----7---7-7---7---7---7---7---7---7--7-----7----|
|-----5-5--5-5--5-5----|-5-----5---5-5---5---5---5---5---5---5--5-----5----|
|----------------------|---------------------------------------------------|
|----------------------|---------------------------------------------------|


                                                C7/G
  S    S E E S S S S Q   S   S E Q   a E    H.         H      E E
|-8b10-8-6---8p6---6-----------3-----4s5\-|-3-----------------3s5\-|
|----------------8---8-------3-------4s5\-|-3-----------------3s5\-|
|------------------------5b7---------4s5\-|-3-----------------3s5\-|
|-----------------------------------------|------------------------|
|-----------------------------------------|------------------------|
|-----------------------------------------|------------------------|
|
| E      E E E   E   E E E     E E E   E    Q   E Q  E Q  E E Q
|-7------7-7-7---7---7-7-7-----7-7-7---7--|-----6-6--6-6--6-6------|
|-6------6-6-6---6---6-6-6-----6-6-6---6--|-----5-5--5-5--5-5------|
|-7------7-7-7---7---7-7-7-----7-7-7---7--|-----5-5--5-5--5-5------|
|-5------5-5-5---5---5-5-5-----5-5-5---5--|-----5-5--5-5--5-5------|
|-----------------------------------------|------------------------|
|-----------------------------------------|------------------------|


                            G7
  H.         H      a E E   E Q    E E Q      E E S S S S E
|-3-----------------------|-3-3---/6-7-8b10---8-6-8p6---6---|
|-3---------------------3-|---------------------------8---8-|
|-3-----------------3s4---|---------------------------------|
|-------------------------|---------------------------------|
|-------------------------|---------------------------------|
|-------------------------|---------------------------------|
|
| Q   E Q  E Q  E E   Q     E E E  E E E    E E E E   E   E
|-----6-6--6-6--6-6-------|-7-7-7--7-7-7----7-7-7-7---7---7-|
|-----5-5--5-5--5-5-------|-6-6-6--6-6-6----6-6-6-6---6---6-|
|-----5-5--5-5--5-5-------|-7-7-7--7-7-7----7-7-7-7---7---7-|
|-----5-5--5-5--5-5-------|-5-5-5--5-5-5----5-5-5-5---5---5-|
|-------------------------|---------------------------------|
|-------------------------|---------------------------------|


                                         D/A         Am6
                                                            ~~~~
  +Q.     S   S S S S S Q   Q   a Q      H.          Q  E E Q
|---------------3-------3-------6s7\---|-5--------------5----------|
|-(8)---------3---6p3-6---------6s7\---|-5-----------7------6b8====|
|---------5b7-------------------6s7\---|-5-------------------------|
|--------------------------------------|---------------------------|
|--------------------------------------|---------------------------|
|--------------------------------------|---------------------------|
|
|  E  E E E     E   E   E E E E   E  E   Q   E E E E Q  E Q      E
|--7--7-7-7-----7---7---7-7-7-7---7--7-|-----8-8---8-5--5----------|
|--6--6-6-6-----6---6---6-6-6-6---6--6-|-7---7---7-7-7--7-7------7-|
|--7--7-7-7-----7---7---7-7-7-7---7--7-|-7---7-------5--5-5------5-|
|--5--5-5-5-----5---5---5-5-5-5---5--5-|-7---7-------7--7-7------7-|
|--------------------------------------|---------------------------|
|--------------------------------------|---------------------------|


  C/G           Gm6            N.C.
   ~~~~
  +H.           H      a E E   Q.    E E   E E E   E E E E
|----------------------------|-----------------------------|
|-(6)r-----------------------|-----------------------------|
|----------------------4s5-3-|-----------------------------|
|----------------------------|-5-----3-----3-2-----2-1---1-|
|----------------------------|---------5-------4-------3---|
|----------------------------|-----------------------------|
|
|  Q    E E E E Q  E Q     E   Q   E E S S E E S S E E E E
|-------6-6---6-3--3---------|-----------------------------|
|--5----5---5---5--5-5-----5-|-------6-6-6-6-5-5-5-5-------|
|--5------------3--3-3-----3-|-------7-7-7-7-6-6-6-6-5-3---|
|--5------------5--5-5-----5-|-5---5---------------------5-|
|----------------------------|-----------------------------|
|----------------------------|-----------------------------|


                                       2nd Verse
  G                 D7                  G7
  Q     E E a E   E Q.       E E   E    Q.     H       Q   E E E
|-----------------7s5----------------||----------------------3s5\-|
|------------------------------------||-3--------------------3s5\-|
|-----------6s7-----5----------5s==7-||-2--------------------3s5\-|
|-0-----0----------------------------||-3-------------------------|
|-2-----2----------------------------||---------------------------|
|------------------------------------||---------------------------|
|
| E S S E E   S S E E  S S E E S S E    E  E E E E E E E E E E E
|------------------------------------||-7--7-7-7-7-7-7-7-7-7-7-7--|
|-3-3-3-3-3---3-3-3-3--3-3-3-3-3-3-3-||-6--6-6-6-6-6-6-6-6-6-6-6--|
|-4-4-4-4-4---4-4-4-5--5-5-5-5-5-5-5-||-7--7-7-7-7-7-7-7-7-7-7-7--|
|-5-5-5-5-5---5-5-5-4--4-4-4-4-4-4-4-||-5--5-5-5-5-5-5-5-5-5-5-5--|
|-------------------5--5-5-5-5-5-5-5-||---------------------------|
|------------------------------------||---------------------------|


      C7/G               G7
  H.         H      Q    S   S S S E S S S S S S S S S S S S E.   a S S S
|-3--------------------|-------3-----5-3-------------3---3---3/-------6-8--|
|-3--------------------|-----3---6p3-----6p3-------3---6---6------7s8------|
|-3--------------------|-5b7-----------------6p0-6-------------------------|
|----------------------|---------------------------------------------------|
|----------------------|---------------------------------------------------|
|----------------------|---------------------------------------------------|
|
| Q   E Q  E Q  E E Q    E     E   E E   E   E   E   E   E   E  E     E
|-----6-6--6-6--6-6----|-7-----7---7-7---7---7---7---7---7---7--7-----7----|
|-----5-5--5-5--5-5----|-6-----6---6-6---6---6---6---6---6---6--6-----6----|
|-----5-5--5-5--5-5----|-7-----7---7-7---7---7---7---7---7---7--7-----7----|
|-----5-5--5-5--5-5----|-5-----5---5-5---5---5---5---5---5---5--5-----5----|
|----------------------|---------------------------------------------------|
|----------------------|---------------------------------------------------|


                                                C7/G
  S    S E E S S S S Q   S   S E Q   a E    H.         H      E E
|-8b10-8-6---8p6---6-----------3-----4s5\-|-3-----------------3s5\-|
|----------------8---8-------3-------4s5\-|-3-----------------3s5\-|
|------------------------5b7---------4s5\-|-3-----------------3s5\-|
|-----------------------------------------|------------------------|
|-----------------------------------------|------------------------|
|-----------------------------------------|------------------------|
|
| E      E E E   E   E E E     E E E   E    Q   E Q  E Q  E E Q
|-7------7-7-7---7---7-7-7-----7-7-7---7--|-----6-6--6-6--6-6------|
|-6------6-6-6---6---6-6-6-----6-6-6---6--|-----5-5--5-5--5-5------|
|-7------7-7-7---7---7-7-7-----7-7-7---7--|-----5-5--5-5--5-5------|
|-5------5-5-5---5---5-5-5-----5-5-5---5--|-----5-5--5-5--5-5------|
|-----------------------------------------|------------------------|
|-----------------------------------------|------------------------|


                            G7
  H.         H      a E E   E Q    E E Q      E E S S S S E
|-3-----------------------|-3-3---/6-7-8b10---8-6-8p6---6---|
|-3---------------------3-|---------------------------8---8-|
|-3-----------------3s4---|---------------------------------|
|-------------------------|---------------------------------|
|-------------------------|---------------------------------|
|-------------------------|---------------------------------|
|
| Q   E Q  E Q  E E   Q     E E E  E E E    E E E E   E   E
|-----6-6--6-6--6-6-------|-7-7-7--7-7-7----7-7-7-7---7---7-|
|-----5-5--5-5--5-5-------|-6-6-6--6-6-6----6-6-6-6---6---6-|
|-----5-5--5-5--5-5-------|-7-7-7--7-7-7----7-7-7-7---7---7-|
|-----5-5--5-5--5-5-------|-5-5-5--5-5-5----5-5-5-5---5---5-|
|-------------------------|---------------------------------|
|-------------------------|---------------------------------|


                                         D/A
                                                            ~~~~
  +Q.     S   S S S S S Q   Q   a Q      H.          Q  E E Q
|---------------3-------3-------6s7\---|-5--------------5----------|
|-(8)---------3---6p3-6---------6s7\---|-5-----------7------6b8====|
|---------5b7-------------------6s7\---|-5-------------------------|
|--------------------------------------|---------------------------|
|--------------------------------------|---------------------------|
|--------------------------------------|---------------------------|
|
|  E  E E E     E   E   E E E E   E  E   Q   E E E E Q  E Q      E
|--7--7-7-7-----7---7---7-7-7-7---7--7-|-----8-8---8-5--5----------|
|--6--6-6-6-----6---6---6-6-6-6---6--6-|-7---7---7-7-7--7-7------7-|
|--7--7-7-7-----7---7---7-7-7-7---7--7-|-7---7-------5--5-5------5-|
|--5--5-5-5-----5---5---5-5-5-5---5--5-|-7---7-------7--7-7------7-|
|--------------------------------------|---------------------------|
|--------------------------------------|---------------------------|


  C/G           Gm6            N.C.
   ~~~~                                     ~~~
  +H.           H      a E E   Q  a E E E   Q     E   E E E S S
|----------------------------|----------------------------------|
|-(6)r-----------------------|----------------------------------|
|----------------------4s5-3-|--------5p3---5b7---5---3-5-3-----|
|----------------------------|----4s5-----------------------5p3-|
|----------------------------|----------------------------------|
|----------------------------|----------------------------------|
|
|  Q    E E E E Q  E Q     E   Q    E E S S E   E S S E E E E
|-------6-6---6-3--3---------|----------------------------------|
|--5----5---5---5--5-5-----5-|--------6-6-6-6---5-5-5-5---------|
|--5------------3--3-3-----3-|--------7-7-7-7---6-6-6-6-5-3-----|
|--5------------5--5-5-----5-|-5----5-----------------------5---|
|----------------------------|----------------------------------|
|----------------------------|----------------------------------|


                                     Bridge
  G               D7                    G7
  Q     E Q     E Q     E E E   E     a E H     Q  E a E E E E   3x
|---------------------------------||-----------------------------||
|---------------------------------||o---------------------------o||
|---------------------------------||--3h4------------------------||
|-5-----5-3-----3---------3-4---5-||---------------------3-4-5---||
|-----------------5-----5---------||o----------------4s5--------o||
|---------------------------------||-----------------------------||
|
| E S S E E S S E E S S E E S S E       Q   W              Q     3x
|---------------------------------||----7------------------------||
|-3-3-3-3-3-3-3-3-3-3-3-3-3-3-3-3-||o---6-----------------------o||
|-4-4-4-4-4-4-4-4-5-5-5-5-5-5-5-5-||----7------------------------||
|-5-5-5-5-5-5-5-5-4-4-4-4-4-4-4-4-||----5------------------------||
|-----------------5-5-5-5-5-5-5-5-||o---------------------------o||
|---------------------------------||-----------------------------||


                                               3rd Verse
                                                    C7/G
   ~~~~~~~~~~~~~~~~~~~~~~~~~~~~~~~~~~~
   E      E  E  E  E  E  E  E  E  Q     a E     H.         H      E E
|---------------------------------------4s5\-||-3-----------------3s5\-|
|-18b20==18-18-18-18-18-18-18-18-18r\---4s5\-||-3-----------------3s5\-|
|---------------------------------------4s5\-||-3-----------------3s5\-|
|--------------------------------------------||------------------------|
|--------------------------------------------||------------------------|
|--------------------------------------------||------------------------|
|
|  E      E  E  E  E  E  E  E  E  E   E   E     Q   E Q  E Q  E E Q
|--7------7--7--7--7--7--7--7--7--7---7---7--||-----6-6--6-6--6-6------|
|--6------6--6--6--6--6--6--6--6--6---6---6--||-----5-5--5-5--5-5------|
|--7------7--7--7--7--7--7--7--7--7---7---7--||-----5-5--5-5--5-5------|
|--5------5--5--5--5--5--5--5--5--5---5---5--||-----5-5--5-5--5-5------|
|--------------------------------------------||------------------------|
|--------------------------------------------||------------------------|


                              G7
  H.         H      S   S E   E   E Q   S S Q     E E S S S S S S
|-3-----------------------3-|-----3-------3-6b7---6-3-6-3---------|
|-3---------------------3---|-6b7-------6-----------------6-3---3-|
|-3-----------------5b7-----|---------------------------------6---|
|---------------------------|-------------------------------------|
|---------------------------|-------------------------------------|
|---------------------------|-------------------------------------|
|
| Q   E Q  E Q  E E Q         E   E E E E   E   E E E E   E   E
|-----6-6--6-6--6-6---------|-7---7-7-7-7---7---7-7-7-7---7---7---|
|-----5-5--5-5--5-5---------|-6---6-6-6-6---6---6-6-6-6---6---6---|
|-----5-5--5-5--5-5---------|-7---7-7-7-7---7---7-7-7-7---7---7---|
|-----5-5--5-5--5-5---------|-5---5-5-5-5---5---5-5-5-5---5---5---|
|---------------------------|-------------------------------------|
|---------------------------|-------------------------------------|


                                               D/A         Am6
  E S S S S S S S S S S S S +Q    S S E a E    H.          H      a  Q
|---------3-----------------------------6s7\-|-5--------------------------|
|-------3---6p3---3---------------------6s7\-|-5------------------8s10----|
|-----6---------6---5p3-x-3-(3)---5p3---6s7\-|-5--------------------------|
|-------------------------------------5------|----------------------------|
|--------------------------------------------|----------------------------|
|--------------------------------------------|----------------------------|
|
| E E   E   E   E   E   E    E  E E   E   E    Q   E E E E Q  E Q      E
|-7-7---7---7---7---7---7----7--7-7---7---7--|-----8-8---8-5--5-----------|
|-6-6---6---6---6---6---6----6--6-6---6---6--|-7---7---7-7-7--7-7------7--|
|-7-7---7---7---7---7---7----7--7-7---7---7--|-7---7-------5--5-5------5--|
|-5-5---5---5---5---5---5----5--5-5---5---5--|-7---7-------7--7-7------7--|
|--------------------------------------------|----------------------------|
|--------------------------------------------|----------------------------|


  C/G        Gm6              N.C.
  H      H      +E  a E E E   +Q   S S E E   E E E   E E E E
|---------------------------|--------------------------------|
|-8------8------(8)---------|------------3-------2-------1---|
|-------------------7s5-3---|--------------------------------|
|-------------------------5-|-(5)------3-----3-2-----2-1---1-|
|---------------------------|--------------------------------|
|---------------------------|------1s3-----------------------|
|
| Q  E E E E Q   E    Q   E    Q   E   E S S E E S S E E E E
|----6-6---6-3---3----------|--------------------------------|
|-5--5---5---5---5----5---5-|----------6-6-6-6-5-5-5-5-------|
|-5----------3---3----3---3-|----------7-7-7-7-6-6-6-6-5-3---|
|-5----------5---5----5---5-|--5---5-----------------------5-|
|---------------------------|--------------------------------|
|---------------------------|--------------------------------|


                                          Guitar Solo
  G                   D7                   G7
  Q     E a E +E    E H         a S S E    H       +E  E E H       S S
|-------------------------------------3-||---------------6-----------6-|
|-0-----0-5s7-(7)---5---------------3---||-8-------(8)-8---8-------8---|
|---------5s7-(7)---5-----------3s4-----||-----------------------------|
|-0-----0-------------------------------||-----------------------------|
|---------------------------------------||-----------------------------|
|---------------------------------------||-----------------------------|
|
| E S S E   E  S  S E E S S E E   S S E    E E E E  E  E E E E E E E
|---------------------------------------||-7-7-7-7--7--7-7-7-7-7-7-7---|
|-3-3-3-3---3--3--3-3-3-3-3-3-3---3-3-3-||-6-6-6-6--6--6-6-6-6-6-6-6---|
|-4-4-4-4---4--4--4-4-5-5-5-5-5---5-5-5-||-7-7-7-7--7--7-7-7-7-7-7-7---|
|-5-5-5-5---5--5--5-5-4-4-4-4-4---4-4-4-||-5-5-5-5--5--5-5-5-5-5-5-5---|
|---------------------5-5-5-5-5---5-5-5-||-----------------------------|
|---------------------------------------||-----------------------------|


        C7/G
  E E   E E S S S S Q.    E a S S E
|---8b9-8-7-8-6---6-------------6---|
|---------------8---8-------7s8-----|
|-----------------------------------|
|-----------------------------------|
|-----------------------------------|
|-----------------------------------|
|
| Q     E Q     E   Q   E E   Q
|-------6-6-----6---6---6-6---------|
|-------5-5-----5---5---5-5---------|
|-------5-5-----5---5---5-5---------|
|-------5-5-----5---5---5-5---------|
|-----------------------------------|
|-----------------------------------|


  G7
                               |-3-|
  E    S S E S S S S E S S S S S S S S S S S E
|-8b10-8-6---8p6---6---8p6---6h8p6--------------|
|----------------8---------8-------8-6----------|
|--------------------------------------7-6-7----|
|-----------------------------------------------|
|-----------------------------------------------|
|-----------------------------------------------|
|
| E    E   E E   E   E E   E   E     E   E   E
|-7----7---7-7---7---7-7---7---7-----7---7---7--|
|-6----6---6-6---6---6-6---6---6-----6---6---6--|
|-7----7---7-7---7---7-7---7---7-----7---7---7--|
|-5----5---5-5---5---5-5---5---5-----5---5---5--|
|-----------------------------------------------|
|-----------------------------------------------|


  S S S S S S a E E E E.     S E T S. E  E
|-----3-----------6-8-8b10---6------------------|
|---3---6p3---6s8--------------8------8-11b11.5-|
|-6------------------------------8s9------------|
|-----------------------------------------------|
|-----------------------------------------------|
|-----------------------------------------------|
|
| E   E   E     E E E E    E   E E    E  E
|-7---7---7-----7-7-7-7----7---7-7----7--7------|
|-6---6---6-----6-6-6-6----6---6-6----6--6------|
|-7---7---7-----7-7-7-7----7---7-7----7--7------|
|-5---5---5-----5-5-5-5----5---5-5----5--5------|
|-----------------------------------------------|
|-----------------------------------------------|


       C7/G
  E  E  E  E E E E. S E E E E
|---10----10---8-6----6-8-6-8b10===|
|------10----8------8--------------|
|----------------------------------|
|----------------------------------|
|----------------------------------|
|----------------------------------|
|
| Q     E  Q   E Q    E E Q
|-------6--6---6-6----6-6----------|
|-------5--5---5-5----5-5----------|
|-------5--5---5-5----5-5----------|
|-------5--5---5-5----5-5----------|
|----------------------------------|
|----------------------------------|


  +E   E E S S S S a S S  E     Q.     E E
|-(8)r-8-6-8p6---6-------10b12-10------8-6-|
|--------------8-------8-------------------|
|------------------8s9---------------------|
|------------------------------------------|
|------------------------------------------|
|------------------------------------------|
|
|  Q     E Q         E    Q        E E Q
|--------6-6---------6----6--------6-6-----|
|--------5-5---------5----5--------5-5-----|
|--------5-5---------5----5--------5-5-----|
|--------5-5---------5----5--------5-5-----|
|------------------------------------------|
|------------------------------------------|


  G7
  H.             S    +S  E E S S S S E
|-8b10-----------8b10r(8)-6---8-6---6---|
|---------------------------------8---8-|
|---------------------------------------|
|---------------------------------------|
|---------------------------------------|
|---------------------------------------|
|
| E    E E E E E E        E E E   E   E
|-7----7-7-7-7-7-7--------7-7-7---7---7-|
|-6----6-6-6-6-6-6--------6-6-6---6---6-|
|-7----7-7-7-7-7-7--------7-7-7---7---7-|
|-5----5-5-5-5-5-5--------5-5-5---5---5-|
|---------------------------------------|
|---------------------------------------|


                                          ~~~~~~~~~
  +E.   S S S S S S S S S Q   a  E  S  S  Q
|-----------------3-----3-----8s10----10-13b15====|
|-(8)---6s8-6-3---3---3------------13-------------|
|---------------6---6-----------------------------|
|-------------------------------------------------|
|-------------------------------------------------|
|-------------------------------------------------|
|
|  E  E   E   E   E   E   E E    E  E     E     E
|--7--7---7---7---7---7---7-7----7--7-----7-----7-|
|--6--6---6---6---6---6---6-6----6--6-----6-----6-|
|--7--7---7---7---7---7---7-7----7--7-----7-----7-|
|--5--5---5---5---5---5---5-5----5--5-----5-----5-|
|-------------------------------------------------|
|-------------------------------------------------|


  D/A
 ~~~~~~~
   +E    E  E  E  E     S  S  S  S  Q   E a E E
|-(13)r-13-10-10-15b17r15-14-15-13------------6-|
|----------------------------------15-----7s8---|
|-----------------------------------------------|
|-----------------------------------------------|
|-----------------------------------------------|
|-----------------------------------------------|
|
|   Q       E  E  E     E     Q       E Q     E
|-----------8--8--------8-----5-------5---------|
|---7-------7-----7-----7-----7-------7-7-----7-|
|---7-------7-----------------5-------5-5-----5-|
|---7-------7-----------------7-------7-7-----7-|
|-----------------------------------------------|
|-----------------------------------------------|


  C/G                                   N.C.
  E    E E S S S S S S Q  E   E E S S   Q  a E E E   E E E   E E E E
|-8b10-6---6-3------------------------|----------3---------------------|
|--------x-----6-3---3----------------|--------3-----6-3-----3---------|
|------------------6------5b6-5-3-----|----3h4-----------6-----5-3-5b7-|
|---------------------------------5-3-|-5------------------------------|
|-------------------------------------|--------------------------------|
|-------------------------------------|--------------------------------|
|
| Q      E E   E   E   Q  E   Q   E     Q    E E S S E E S S E E E E
|--------6-6-------6---3--3-----------|--------------------------------|
|-5------5-----5-------5--5---5---5---|--------6-6-6-6-5-5-5-5---------|
|-5--------------------3--3---3---3---|--------7-7-7-7-6-6-6-6-5-3-----|
|-5--------------------5--5---5---5---|-5----5---------------------5---|
|-------------------------------------|--------------------------------|
|-------------------------------------|--------------------------------|


                                    4th Verse
  G               D7                 G7
  ~~~~~~~~~~~~~~~~~~~~~~~~
  E E   E E E   E E E   E E E   E    Q.     H       Q   E E E
|---------------------------------||----------------------3s5\-|
|---------------------------------||-3--------------------3s5\-|
|-7-7---7-7-7---7-7-6---6-5-3s==7-||-2--------------------3s5\-|
|---------------------------------||-3-------------------------|
|---------------------------------||---------------------------|
|---------------------------------||---------------------------|
|
| E S S E E S S E E S S E E S S E    E  E E E E E E E E E E E
|---------------------------------||-7--7-7-7-7-7-7-7-7-7-7-7--|
|-3-3-3-3-3-3-3-3-3-3-3-3-3-3-3-3-||-6--6-6-6-6-6-6-6-6-6-6-6--|
|-4-4-4-4-4-4-4-4-5-5-5-5-5-5-5-5-||-7--7-7-7-7-7-7-7-7-7-7-7--|
|-5-5-5-5-5-5-5-5-4-4-4-4-4-4-4-4-||-5--5-5-5-5-5-5-5-5-5-5-5--|
|-----------------5-5-5-5-5-5-5-5-||---------------------------|
|---------------------------------||---------------------------|


      C7/G               G7
  H.         H      Q    S   S S S E S S S S S S S S S S S S E.   a S S S
|-3--------------------|-------3-----5-3-------------3---3---3--------6-8--|
|-3--------------------|-----3---6p3-----6p3-------3---6---6------7s8------|
|-3--------------------|-5b7-----------------6p0-6-------------------------|
|----------------------|---------------------------------------------------|
|----------------------|---------------------------------------------------|
|----------------------|---------------------------------------------------|
|
| Q   E Q  E Q  E E Q    E     E   E E   E   E   E   E   E   E  E     E
|-----6-6--6-6--6-6----|-7-----7---7-7---7---7---7---7---7---7--7-----7----|
|-----5-5--5-5--5-5----|-6-----6---6-6---6---6---6---6---6---6--6-----6----|
|-----5-5--5-5--5-5----|-7-----7---7-7---7---7---7---7---7---7--7-----7----|
|-----5-5--5-5--5-5----|-5-----5---5-5---5---5---5---5---5---5--5-----5----|
|----------------------|---------------------------------------------------|
|----------------------|---------------------------------------------------|


                                                  C7/G
  S     S  E E S S S S Q   S   S E Q   a E    H.         H      E E
|-8b10==8r-6---8p6---6-----------3-----4s5\-|-3-----------------3s5\-|
|------------------8---8-------3-------4s5\-|-3-----------------3s5\-|
|--------------------------5b7---------4s5\-|-3-----------------3s5\-|
|-------------------------------------------|------------------------|
|-------------------------------------------|------------------------|
|-------------------------------------------|------------------------|
|
| E        E E E   E   E E E     E E E   E    Q   E Q  E Q  E E Q
|-7--------7-7-7---7---7-7-7-----7-7-7---7--|-----6-6--6-6--6-6------|
|-6--------6-6-6---6---6-6-6-----6-6-6---6--|-----5-5--5-5--5-5------|
|-7--------7-7-7---7---7-7-7-----7-7-7---7--|-----5-5--5-5--5-5------|
|-5--------5-5-5---5---5-5-5-----5-5-5---5--|-----5-5--5-5--5-5------|
|-------------------------------------------|------------------------|
|-------------------------------------------|------------------------|


                            G7
  H.         H      a E E   E Q    E E Q      E E S S S S E
|-3-----------------------|-3-3---/6-7-8b10---8-6-8p6---6---|
|-3---------------------3-|---------------------------8---8-|
|-3-----------------3s4---|---------------------------------|
|-------------------------|---------------------------------|
|-------------------------|---------------------------------|
|-------------------------|---------------------------------|
|
| Q   E Q  E Q  E E   Q     E E E  E E E    E E E E   E   E
|-----6-6--6-6--6-6-------|-7-7-7--7-7-7----7-7-7-7---7---7-|
|-----5-5--5-5--5-5-------|-6-6-6--6-6-6----6-6-6-6---6---6-|
|-----5-5--5-5--5-5-------|-7-7-7--7-7-7----7-7-7-7---7---7-|
|-----5-5--5-5--5-5-------|-5-5-5--5-5-5----5-5-5-5---5---5-|
|-------------------------|---------------------------------|
|-------------------------|---------------------------------|


                                         D/A
                                                            ~~~~
  +Q.     S   S S S S S Q   Q   a Q      H.          Q  E E Q
|---------------3-------3-------6s7\---|-5--------------5----------|
|-(8)---------3---6p3-6---------6s7\---|-5-----------7------6b8====|
|---------5b7-------------------6s7\---|-5-------------------------|
|--------------------------------------|---------------------------|
|--------------------------------------|---------------------------|
|--------------------------------------|---------------------------|
|
|  E  E E E     E   E   E E E E   E  E   Q   E E E E Q  E Q      E
|--7--7-7-7-----7---7---7-7-7-7---7--7-|-----8-8---8-5--5----------|
|--6--6-6-6-----6---6---6-6-6-6---6--6-|-7---7---7-7-7--7-7------7-|
|--7--7-7-7-----7---7---7-7-7-7---7--7-|-7---7-------5--5-5------5-|
|--5--5-5-5-----5---5---5-5-5-5---5--5-|-7---7-------7--7-7------7-|
|--------------------------------------|---------------------------|
|--------------------------------------|---------------------------|


  C/G                          N.C.
   ~~~~                                     ~~~
  +H.           H      a E E   Q  a E E E   Q     E   E E E S S
|----------------------------|----------------------------------|
|-(6)r-----------------------|----------------------------------|
|----------------------4s5-3-|--------5p3---5b7---5---3-5-3-----|
|----------------------------|----4s5-----------------------5p3-|
|----------------------------|----------------------------------|
|----------------------------|----------------------------------|
|
|  Q    E E E E Q  E Q     E   Q    E E S S E   E S S E E E E
|-------6-6---6-3--3---------|----------------------------------|
|--5----5---5---5--5-5-----5-|--------6-6-6-6---5-5-5-5---------|
|--5------------3--3-3-----3-|--------7-7-7-7---6-6-6-6-5-3-----|
|--5------------5--5-5-----5-|-5----5-----------------------5---|
|----------------------------|----------------------------------|
|----------------------------|----------------------------------|


                                     Bridge
  G                                     G7
  Q     E Q     E Q     E E E   E     a E H     Q  E a E E E E   3x
|---------------------------------||-----------------------------||
|---------------------------------||o---------------------------o||
|---------------------------------||--3h4------------------------||
|-5-----5-3-----3---------3-4---5-||---------------------3-4-5---||
|-----------------5-----5---------||o----------------4s5--------o||
|---------------------------------||-----------------------------||
|
| E S S E E S S E E S S E E S S E       Q   W              Q     3x
|---------------------------------||----7------------------------||
|-3-3-3-3-3-3-3-3-3-3-3-3-3-3-3-3-||o---6-----------------------o||
|-4-4-4-4-4-4-4-4-5-5-5-5-5-5-5-5-||----7------------------------||
|-5-5-5-5-5-5-5-5-4-4-4-4-4-4-4-4-||----5------------------------||
|-----------------5-5-5-5-5-5-5-5-||o---------------------------o||
|---------------------------------||-----------------------------||


                                              5th Verse
                                                   C7/G
   ~~~~~~~~~~~~~~~~~~~~~~~~~~~~~~~~~~
   E      E  E  E  E  E  E  E  E  Q    a E     H.         H      E E
|--------------------------------------4s5\-||-3-----------------3s5\-|
|-18b20==18-18-18-18-18-18-18-18-18r---4s5\-||-3-----------------3s5\-|
|--------------------------------------4s5\-||-3-----------------3s5\-|
|-------------------------------------------||------------------------|
|-------------------------------------------||------------------------|
|-------------------------------------------||------------------------|
|
|  E      E  E  E  E  E  E  E  E  E  E   E     Q   E Q  E Q  E E Q
|--7------7--7--7--7--7--7--7--7--7--7---7--||-----6-6--6-6--6-6------|
|--6------6--6--6--6--6--6--6--6--6--6---6--||-----5-5--5-5--5-5------|
|--7------7--7--7--7--7--7--7--7--7--7---7--||-----5-5--5-5--5-5------|
|--5------5--5--5--5--5--5--5--5--5--5---5--||-----5-5--5-5--5-5------|
|-------------------------------------------||------------------------|
|-------------------------------------------||------------------------|


                              G7
  H.         H      S   S E   E   E Q   S S Q     E E S S S S S S
|-3-----------------------3-|-----3-------3-6b7---6-3-6-3---------|
|-3---------------------3---|-6b7-------6-----------------6-3---3-|
|-3-----------------5b7-----|---------------------------------6---|
|---------------------------|-------------------------------------|
|---------------------------|-------------------------------------|
|---------------------------|-------------------------------------|
|
| Q   E Q  E Q  E E Q         E   E E E E   E   E E E E   E   E
|-----6-6--6-6--6-6---------|-7---7-7-7-7---7---7-7-7-7---7---7---|
|-----5-5--5-5--5-5---------|-6---6-6-6-6---6---6-6-6-6---6---6---|
|-----5-5--5-5--5-5---------|-7---7-7-7-7---7---7-7-7-7---7---7---|
|-----5-5--5-5--5-5---------|-5---5-5-5-5---5---5-5-5-5---5---5---|
|---------------------------|-------------------------------------|
|---------------------------|-------------------------------------|


                                               D/A
  E S S S S S S S S S S S S +Q    S S E a E    H.          H      a  Q
|---------3-----------------------------6s7\-|-5--------------------------|
|-------3---6p3---3---------------------6s7\-|-5------------------8s10----|
|-----6---------6---5p3-x-3-(3)---5p3---6s7\-|-5--------------------------|
|-------------------------------------5------|----------------------------|
|--------------------------------------------|----------------------------|
|--------------------------------------------|----------------------------|
|
| E E   E   E   E   E   E    E  E E   E   E    Q   E E E E Q  E Q      E
|-7-7---7---7---7---7---7----7--7-7---7---7--|-----8-8---8-5--5-----------|
|-6-6---6---6---6---6---6----6--6-6---6---6--|-7---7---7-7-7--7-7------7--|
|-7-7---7---7---7---7---7----7--7-7---7---7--|-7---7-------5--5-5------5--|
|-5-5---5---5---5---5---5----5--5-5---5---5--|-7---7-------7--7-7------7--|
|--------------------------------------------|----------------------------|
|--------------------------------------------|----------------------------|


                    Outro
  C9                          G7
                               ~~~~~~
  E E W        Q     Q   a  E  Q   E  E.   S  E  E  E  a  E
|-----------------||----13s15-15--15-15\-----13-------------|
|-----------------||----------------------------15s13-10s12-|
|-3---------------||----------------------------------------|
|-2---------------||----------------------------------------|
|-3---------------||----------------------------------------|
|-3---------------||----------------------------------------|
|
| Q   W        Q     Q      E  Q   E  E  E    E  E  E     E
|-3---------------||-----------7---7--7--7----7--7--7-----7-|
|-3---------------||-----------6---6--6--6----6--6--6-----6-|
|-3---------------||-----------7---7--7--7----7--7--7-----7-|
|-2---------------||-----------5---5--5--5----5--5--5-----5-|
|-3---------------||----------------------------------------|
|-----------------||----------------------------------------|


   Q   H       Q      S  S  S  S  S  S  S  S
|-------------13b15--13-10-13-10----10----10---|
|--------------------------------13----13------|
|-12\------------------------------------------|
|----------------------------------------------|
|----------------------------------------------|
|----------------------------------------------|
|
|  Q   E Q  E +H.
|--7---7-7--7-(7)------------------------------|
|--6---6-6--6-(6)------------------------------|
|--7---7-7--7-(7)------------------------------|
|--5---5-5--5-(5)------------------------------|
|----------------------------------------------|
|----------------------------------------------|


  N.C.
   S  S  S  S  E  S  S  S  S  S  S  S  E  S  a  S  E.  +Q      +W.
|-----------------------------------------------------------|---------*|
|-13-11----11-----------------------------------------------|---------*|
|-------12----12-10-12-10----10-----------------------------|---------*|
|-------------------------12----12p10-----------------------|---------*|
|-------------------------------------12-10-----------------|---------*|
|-------------------------------------------13h15p13--(13)--|-(13)----*|
|
|  W                                                            W
|-----------------------------------------------------------|---------*|
|-----------------------------------------------------------|---------*|
|-----------------------------------------------------------|---------*|
|-----------------------------------------------------------|---------*|
|-----------------------------------------------------------|---------*|
|-----------------------------------------------------------|---------*|


Duration Legend
---------------
W - whole; H - half; Q - quarter; E - 8th; S - 16th; T - 32nd; X - 64th; a - acciaccatura
+ - note tied to previous; . - note dotted; .. - note double dotted
Uncapitalized letters represent notes that are staccato (1/2 duration)
Irregular groupings are notated above the duration line
Duration letters will always appear directly above the note/fret number it represents the
duration for.  Duration letters with no fret number below them represent rests.  Multi-
bar rests are notated in the form Wxn, where n is the number of bars to rest for.  Low
melody durations appear below the staff

Tablature Legend
----------------
 h   - hammer-on
 p   - pull-off
 b   - bend
 pb  - pre-bend
 r   - bend release (if no number after the r, then release immediately)
 /\  - slide into or out of (from/to "nowhere")
 s   - legato slide
 S   - shift slide
  - natural harmonic
[n]  - artificial harmonic
n(n) - tapped harmonic
 ~   - vibrato
 tr  - trill
 T   - tap
 TP  - trem. picking
 PM  - palm muting
\n/  - tremolo bar dip; n = amount to dip
 \n  - tremolo bar down
 n/  - tremolo bar up
/n\  - tremolo bar inverted dip
 =   - hold bend; also acts as connecting device for hammers/pulls
 <>  - volume swell (louder/softer)
 x   - on rhythm slash represents muted slash
 o   - on rhythm slash represents single note slash

Misc Legend
-----------
 |  - bar
||  - double bar
||o - repeat start
o|| - repeat end
*|  - double bar (ending)
 :  - bar (freetime)
 $  - Segno
 &  - Coda
Tempo markers -  = BPM(8/16=s8/s16), where s8 = swing 8ths, s16 = swing 16ths
Добавлено: 26.07.2015
Другие материалы по этой песне:

Страница создана 18.04.2012
http://primanota.ru/paul-butterfield-blues-band/blues-with-a-feeling-chords.htm
Привет, Гость.
Предлагаем пройти революционный курс по гитаре.
Подарок от PrimaNota.Ru, забирай!