PrimaNota.ru - самый крупный в мире бесплатный архив песенных текстов, аккордов, табулатур и нот


Patty Griffin - You Are Not Alone - аккорды и текст, видео

Регистрация Запомнить меня
Войти через:  Facebook Google Twitter Vk Yandex Mail.ru

Patty Griffin - You Are Not Alone - аккорды и текст, видео

Печатать
Просмотров: 117
Уроки эстрадного вокала в Санкт-Петербурге
You Are Not Alone
Patty Griffin
DADDAD tuning (D Modial)
No capo to play to the CD

D*     (004000)
Asus  (002200)
D      (000000)
D**    (bar 12th fret harmonic)
A      (777777)
G      (550000)
Asus* (070000)

D*                  Asus      D              D**
She sees him laying in the bed alone tonight
D*           Asus             D              D**
Only thing a touching him is a crack of light
              A                                      G
Pieces of her hair are wrapped around and 'round his fingers
       Asus*          D            Asus
And he reaches for her side for any sign of her that lingers


                         G                   D
And she says you are not alone laying in the light
            G                                 D
Put out the fire in your head and lay with me tonight

---------------------

For those interested in the tab, here is a rough approximation.
I don't play it as rigid as this implies, but it should give you
a good idea. But of course, that's the beauty of music, you get
to apply your own interpretation.....

Repeat once                      | alternate repeat between 2nd and 3rd verse
                                 |
   D*       Asus  D    D**      | D*      Asus         G
D---0----0---0------0------|---0----0---0---0-----0---0---0---0---0-0---|
A---0----0---0------0------|---0----0---0---0-----0---0---0---0---0-0---|
D--0----0----------0-------|--0----0--------2/4/2-0---0---0---0h2-0-5/4-|
D-4--4-----2--2---0--0-----|-4--4-----2--2--2/4/2-0-----------0h2-0-5/4-|
A-----------0------------------|-----------0-------------5-----5------------|
D----------------0---------|------------------------5--5----------------|

            A                 G                    Asus*    D
D ----------7--7--7--7--7--7----0---0------0---0-----0----0----0----0--|
A ----------7--7--7--7--7--7----0---0------0---0-----0----0----0----0--|
D ----------7--7--7--7--7--7----0---0------0---0----0----0----0----0---|
D ----------7--7--7--7--7--7-------------------------------------------|
A -5-4-2-0--7--7--7--7--7--7---5-----5----5-----5--7--7------0--0------|
D ---------7--7--7--7--7--7---5--5-------5--5--------------------------|

   Asus                 G                   D
D ---0----0------0---------0----0----0----0----0----0----0----0---|
A ---0----0------0---------0----0----0----0----0----0----0----0---|
D ---------------0---------0----0----0----0----0----0----0----0---|
D --2----2-------4/2-0--------------------------------------------|
A -0--0-------------------5----5----5----5----0----0----0----0----|
D ---------------------0-5--5------5--5------0--0------0--0-------|

   G                   D
D ---0----0----0----0----0----0----0----0--------|
A ---0----0----0----0----0----0----0----0--------|
D ---0----0----0----0----0----0----0----0--------|
D -----------------------------------------------|
A --5----5----5----5----0----0----0----0---------|
D -5--5------5--5------0--0------0--0------------|
Добавлено: 18.09.2013
Другие материалы по этой песне:
  • Аккорды и текст

Страница создана 23.02.2012
http://primanota.ru/patty-griffin/you-are-not-alone-chords.htm
Привет, Гость.
Предлагаем пройти революционный курс по гитаре.
Подарок от PrimaNota.Ru, забирай!