PrimaNota.ru - самый крупный в мире бесплатный архив песенных текстов, аккордов, табулатур и нот


Patti Smith - Ain't It Strange - текст песни, таба, видео

Регистрация Запомнить меня
Войти через:  Facebook Google Twitter Vk Yandex Mail.ru

Patti Smith - Ain't It Strange - текст песни, таба, видео

Печатать
Просмотров: 142
Авторы: Ivan Král, Patti Smith

-------------------------------------------------------------------------------
                   Ain't It Strange - Patti Smith
-------------------------------------------------------------------------------

Tabbed by: Maya L T 

Tuning: Standard


e|-------------------------------------------------------------------------------------------|
B|-------------------------------------------------------------------------------------------|
G|---------------2-----------2---2---2---2---2---2-----------0-------------------------------|
D|-------------------0-------------------------------0-----------0-------------------x---x---| (repeat)
A|-----------0-----------0-------------------------------0-----------0-----------0---x---x---|
E|---0---3---------------------------------------------------------------0---3-------x---x---|

(I believe it's played with a slight palm mute.)


This is the main riff played throughout the song. 
That's all,
Enjoy!
Добавлено: 13.11.2015
Другие материалы по этой песне:
  • Аккорды и текст

Страница создана 28.03.2012
http://primanota.ru/patti-smith/aint-it-strange-chords.htm
Привет, Гость.
Предлагаем пройти революционный курс по гитаре.
Подарок от PrimaNota.Ru, забирай!