PrimaNota.ru - самый крупный в мире бесплатный архив песенных текстов, аккордов, табулатур и нот


Patsy Cline - Fall To Pieces - бас-таба, видео

Регистрация Запомнить меня
Войти через:  Facebook Google Twitter Vk Yandex Mail.ru

Patsy Cline - Fall To Pieces - бас-таба, видео

Печатать
Просмотров: 107
patsy_cline-fall_to_pieces

Basstab by Jan Bjorklund, Finland
 jani_bjorklund@yahoo.se>
You are welcome to request for basstabs!
Fingering and positions as suggested by TablEdit,
please use common sense!

TablEdited by Jan Bjorklund
Tuning : E A D G 	Time Signature: 4/4

 |       |       |       |        |       |       |   
   |        
|--------0-------3-------0-------|--------2-------5-------2-------|
|1-------------------------------|3-------------------------------|
|--------------------------------|--------------------------------|
|--------------------------------|--------------------------------|

 |       |       |       |        |       |       |   
   |        
|3-------0-----------------------|--------------------------------|
|----------------3-------0-------|--------------------------------|
|--------------------------------|1-----------------------0-------|
|--------------------------------|--------1-------3---------------|

 |       |       |       |        |       |       |   
   |        
|--------------------------------|--------0-------3-------0-------|
|--------0-------3-------0-------|1-------------------------------|
|1-------------------------------|--------------------------------|
|--------------------------------|--------------------------------|

 |       |       |       |        |       |       |   
   |        
|--------2-------5-------2-------|--------------------------------|
|3-------------------------------|3---------------3-------2-------|
|--------------------------------|--------3-----------------------|
|--------------------------------|--------------------------------|

 |       |       |       |        |       |       |   
   |        
|--------0-------3-------0-------|--------2-------5-------2-------|
|1-------------------------------|3-------------------------------|
|--------------------------------|--------------------------------|
|--------------------------------|--------------------------------|

 |       |       |       |        |       |       |   
   |        
|3-------0-----------------------|--------------------------------|
|----------------3-------0-------|--------------------------------|
|--------------------------------|1-----------------------0-------|
|--------------------------------|--------1-------3---------------|

 |       |       |       |        |       |       |   
   |        
|--------------------------------|--------0-------3-------0-------|
|--------0-------3-------0-------|1-------------------------------|
|1-------------------------------|--------------------------------|
|--------------------------------|--------------------------------|

 |       |       |       |        |       |       |   
   |        
|--------2-------5-------2-------|--------------------------------|
|3-------------------------------|3---------------3-------2-------|
|--------------------------------|--------3-----------------------|
|--------------------------------|--------------------------------|

 |       |       |       |        |       |       |   
   |        
|--------0-------3-------0-------|--------2-------5-------2-------|
|1-------------------------------|3-------------------------------|
|--------------------------------|--------------------------------|
|--------------------------------|--------------------------------|

 |       |       |       |        |       |       |   
   |        
|3-------0-----------------------|--------------------------------|
|----------------3-------0-------|--------------------------------|
|--------------------------------|1-----------------------0-------|
|--------------------------------|--------1-------3---------------|

 |       |       |       |        |       |       |   
   |        
|--------------------------------|--------------------------------|
|--------0-------3-------0-------|--------0-------3-------0-------|
|1-------------------------------|1-------------------------------|
|--------------------------------|--------------------------------|

 |       |       |       |        |       |       |   
   |        
|--------0-------3-------0-------|--------0-------3-------0-------|
|1-------------------------------|1-------------------------------|
|--------------------------------|--------------------------------|
|--------------------------------|--------------------------------|

 |       |       |       |        |       |       |   
   |        
|--------2-------5-------2-------|----------------0-------2-------|
|3-------------------------------|3-------3-----------------------|
|--------------------------------|--------------------------------|
|--------------------------------|--------------------------------|

 |       |       |       |        |       |       |   
   |        
|3-------0-----------------------|--------------------------------|
|----------------3-------0-------|------------------------0-------|
|--------------------------------|1-------1-------3---------------|
|--------------------------------|--------------------------------|

 |       |       |       |        |       |       |   
   |        
|--------0-------3-------0-------|--------2-------5-------2-------|
|1-------------------------------|3-------------------------------|
|--------------------------------|--------------------------------|
|--------------------------------|--------------------------------|

 |       |       |       |        |       |       |   
   |        
|3-------0-----------------------|--------------------------------|
|----------------3-------0-------|------------------------0-------|
|--------------------------------|1-------1-------3---------------|
|--------------------------------|--------------------------------|

 |       |       |       |        |       |       |   
   |        
|--------0-------3-------0-------|--------2-------5-------2-------|
|1-------------------------------|3-------------------------------|
|--------------------------------|--------------------------------|
|--------------------------------|--------------------------------|

 |       |       |       |        |       |       |   
   |        
|3-------0-----------------------|--------------------------------|
|----------------3-------0-------|------------------------0-------|
|--------------------------------|1-------1-------3---------------|
|--------------------------------|--------------------------------|

 |       |       |       |        |       |       |   
   |        
|--------0-------3-------0-------|--------2-------5-------2-------|
|1-------------------------------|3-------------------------------|
|--------------------------------|--------------------------------|
|--------------------------------|--------------------------------|

 |       |       |       |        |       |       |   
   |        
|3-------0-----------------------|--------------------------------|
|----------------3-------0-------|--------------------------------|
|--------------------------------|1-----------------------0-------|
|--------------------------------|--------1-------3---------------|

 |       |       |       |        |       |       |   
   |        
|--------------------------------|--------0-------3-------0-------|
|--------0-------3-------0-------|1-------------------------------|
|1-------------------------------|--------------------------------|
|--------------------------------|--------------------------------|

 |       |       |       |        |       |       |   
   |        
|--------2-------5-------2-------|--------------------------------|
|3-------------------------------|3---------------3-------2-------|
|--------------------------------|--------3-----------------------|
|--------------------------------|--------------------------------|

 |       |       |       |        |       |       |   
   |        
|--------0-------3-------0-------|--------2-------5-------2-------|
|1-------------------------------|3-------------------------------|
|--------------------------------|--------------------------------|
|--------------------------------|--------------------------------|

 |       |       |       |        |       |       |   
   |        
|3-------0-----------------------|--------------------------------|
|----------------3-------0-------|--------------------------------|
|--------------------------------|1-----------------------0-------|
|--------------------------------|--------1-------3---------------|

 |       |       |       |        |       |       |   
   |        
|--------------------------------|--------0-------3-------0-------|
|--------0-------3-------0-------|1-------------------------------|
|1-------------------------------|--------------------------------|
|--------------------------------|--------------------------------|

 |       |       |       |        |       |       |   
   |        
|--------2-------5-------2-------|--------------------------------|
|3-------------------------------|3---------------3-------2-------|
|--------------------------------|--------3-----------------------|
|--------------------------------|--------------------------------|

 |       |       |       |        |       |       |   
   |        
|--------0-------3-------0-------|--------2-------5-------2-------|
|1-------------------------------|3-------------------------------|
|--------------------------------|--------------------------------|
|--------------------------------|--------------------------------|

 |       |       |       |        |       |       |   
   |        
|3-------0-----------------------|--------------------------------|
|----------------3-------0-------|--------------------------------|
|--------------------------------|1-----------------------0-------|
|--------------------------------|--------1-------3---------------|

 |       |       |       |        |       |       |   
   |        
|--------------------------------|--------------------------------|
|--------0-------3-------0-------|--------0-------3-------0-------|
|1-------------------------------|1-------------------------------|
|--------------------------------|--------------------------------|

 |       |       |       |        |       |       |   
   |        
|--------0-------3-------0-------|--------0-------3-------0-------|
|1-------------------------------|1-------------------------------|
|--------------------------------|--------------------------------|
|--------------------------------|--------------------------------|

 |       |       |       |        |       |       |   
   |        
|--------2-------5-------2-------|----------------0-------2-------|
|3-------------------------------|3-------3-----------------------|
|--------------------------------|--------------------------------|
|--------------------------------|--------------------------------|

 |       |       |       |        |       |       |   
   |        
|3-------0-----------------------|--------------------------------|
|----------------3-------0-------|------------------------0-------|
|--------------------------------|1-------1-------3---------------|
|--------------------------------|--------------------------------|

 |       |       |       |        |       |       |   
   |        
|--------0-------3-------0-------|--------2-------5-------2-------|
|1-------------------------------|3-------------------------------|
|--------------------------------|--------------------------------|
|--------------------------------|--------------------------------|

 |       |       |       |        |       |       |   
   |        
|3-------0-----------------------|--------------------------------|
|----------------3-------0-------|------------------------0-------|
|--------------------------------|1-------1-------3---------------|
|--------------------------------|--------------------------------|

 |       |       |       |        |       |       |   
   |        
|--------0-------3-------0-------|--------2-------5-------2-------|
|1-------------------------------|3-------------------------------|
|--------------------------------|--------------------------------|
|--------------------------------|--------------------------------|

 |       |       |       |        |       |       |   
   |        
|3-------0-----------------------|--------------------------------|
|----------------3-------0-------|------------------------0-------|
|--------------------------------|1-------1-------3---------------|
|--------------------------------|--------------------------------|

 |       |       |       |        |       |       |   
   |        
|--------0-------3-------0-------|--------2-------5-------2-------|
|1-------------------------------|3-------------------------------|
|--------------------------------|--------------------------------|
|--------------------------------|--------------------------------|

 |       |       |       |        |       |       |   
   |        
|3-------0-----------------------|--------------------------------|
|----------------3-------0-------|--------------------------------|
|--------------------------------|1---------------1---------------|
|--------------------------------|--------1-----------------------|


Created with TablEdit http://www.tabledit.com/

     
Добавлено: 05.07.2013
Другие материалы по этой песне:
  • Аккорды и текст

Страница создана 05.07.2013
http://primanota.ru/patsy-cline/fall-to-pieces-chords.htm
Привет, Гость.
Предлагаем пройти революционный курс по гитаре.
Подарок от PrimaNota.Ru, забирай!