PrimaNota.ru - самый крупный в мире бесплатный архив песенных текстов, аккордов, табулатур и нот


Patrick Wolf - Wind In The Wires - аккорды и текст, таба, видео

Регистрация Запомнить меня
Войти через:  Facebook Google Twitter Vk Yandex Mail.ru

Patrick Wolf - Wind In The Wires - аккорды и текст, таба, видео

Печатать
Просмотров: 136
Wind In The Wires
Patrick Wolf
PATRICK WOLF
WIND IN THE WIRES

Tabbed by: Alex Turgeon (alexturgeon@gmail.com)

This is the way i play it. the notes are right but if you find he plays them somewhere
else i dont really care to know. The reason why i do play it this way is because its
easier to play the melody and rhytm at the same time. Cheers.

Guitar 1:
   Cadd9   Am7     Em7
E|-----0-----0---------------0---|
B|---3---------3-----3-0-------3-|
G|-------------------------------|
D|-------------------------------|
A|-3-------0---------------------|
E|-----------------0-------0-----|

Guitar 2:
   C      Am      Em
E|-------------------------------|
B|-------------------------------|
G|-------------------------------|
D|-222222222222220---------------|
A|-333333300000000222222222222222|
E|----------------000000000000000|

(Em)        C
Wind in the wires
         Am               Em
It
Добавлено: 15.12.2013
Другие материалы по этой песне:
  • Аккорды и текст

Страница создана 21.08.2013
http://primanota.ru/patrick-wolf/wind-in-the-wires-chords.htm
Привет, Гость.
Предлагаем пройти революционный курс по гитаре.
Подарок от PrimaNota.Ru, забирай!