PrimaNota.ru - самый крупный в мире бесплатный архив песенных текстов, аккордов, табулатур и нот


Patrick Van Zandwijk - The Confrontation - таба, видео

Регистрация Запомнить меня
Войти через:  Facebook Google Twitter Vk Yandex Mail.ru

Patrick Van Zandwijk - The Confrontation - таба, видео

Печатать
Просмотров: 12
---------------------------------------------------------------------------------------------------------------
                                          Artist - Patrick Van Zandwijk
                                         *******************************
                                            Song - The Confrontation
                                           **************************
                                              Tabbed By - Ayreon77
                                             **********************
---------------------------------------------------------------------------------------------------------------
Tuning = Standard                                INSTRUMENTAL
                                                **************

INTRO
******
   F         C          F  E         F                           C     Am   F       E
  Some of these notes come in with a vol pedal = *
e|---------|-----------------------|--------------|------------|----------|-------***VOLUME***|
B|--s------|-*------s-------b------|--s-------s---|--------s---|----s-----|---------s---------|
G|-8\10~~~-|-9~~~--9\7--5--7-~~~~~-|-7\9-10-10\12-|-9-10-10\12-|-7-7\9-~~-|-7~~~~-5-\4---10-9-|
D|---------|-----------------------|--------------|------------|----------|-------------------|
A|---------|-----------------------|--------------|------------|----------|-------------------|
E|---------|-----------------------|--------------|------------|----------|-------------------|
  
   F                          C            F                                   E                      F
00:30        s          s      b   r         h  p    s     h  p  h  p           b    b  b  b  b   h  p
e|----7-7-8-8\10-|-7-8-8\10-|-12-~~~~-12-|-10-12-10--\-|-10-12-10-12-10-|-8-10-10---10-10-10-10--8-10-8~~~~-|
B|-10------------|----------|------------|-------------|----------------|-----------------------------------|
G|---------------|----------|------------|-------------|----------------|-----------------------------------|
D|---------------|----------|------------|-------------|----------------|-----------------------------------|
A|---------------|----------|------------|-------------|----------------|-----------------------------------|
E|---------------|----------|------------|-------------|----------------|-----------------------------------|

00:49            C                     F             E          F   C                  F         C  E
e|-7~~~-----7------|----------------------|----------------------------------|---------------------------|
B|-------10---10-8-|-8---------s----s-----|----------------------------------|---10-12-------------------|
G|-----------------|---10-10-10\9--9\10-9-|------------s--------9~~-10~~-9~~-|-9-------10~~------------*-|
D|-----------------|----------------------|-------10-10\9-9-9----------------|-----------------7-10-9-10-|
A|-----------------|----------------------|-10-12----------------------------|--------------10-----------|
E|-----------------|----------------------|----------------------------------|---------------------------|


---------------------------
PIANO BREAK - F C F E
************


01:33
  GUITAR 1
e|-0-8-0-7-0-5-0-7--|-0-8-0-7-0-5-0-7--|-0-8-0-7-0-5-0-7--|-0-12-0-10-0-13-0-12-|\
B|------------------|------------------|------------------|---------------------| \
G|------------------|------------------|------------------|---------------------|  \
D|------------------|------------------|------------------|---------------------|   \
A|------------------|------------------|------------------|---------------------|    \
E|------------------|------------------|------------------|---------------------|     \
 |                                                                              |      \X
 |GUITAR 2                                                                      |      /2
e|------------------|------------------|------------------|---------------------|     /
B|------------------|------------------|------------------|---------------------|    /
G|------------------|------------------|------------------|---9---7---10---9----|   /
D|---10---9---7---9-|---10---9---7---9-|---10---9---7---9-|---------------------|  /
A|-7----7---7---7---|-7----7---7---7---|-7----7---7---7---|-7---7---7----7------| /
E|------------------|------------------|------------------|---------------------|/


---------------------------
  F                     C       F                 E
01:48                               right hand 
e|--------------------------------|-mute a little-----------------------|
B|---s---------p-s--s------b--r---|--------------s-s----s------s------s-|
G|-10\12~~~~-12-9\10/9-7-7------5-|-5-4-5--4-5--5\7\9-9-\12-12-\14-14-\-|
D|--------------------------------|-------------------------------------|
A|--------------------------------|-------------------------------------|
E|--------------------------------|-------------------------------------|


---------------------------
   F 
02:04                                                                        02:20         s 
e|--------------|------------------|-----------------|---br-----------------|-s------7-8-7-\10-10-------------|
B|--------------|------------------|-----------------|-6-8-6----------6---s-|-\10-10--------------8-10--------|
G|----7-10-7----|------------------|-------7-10-7----|-------7~~~-5-7---7-\-|---------------------------------|
D|-10--------10-|-7-10-7-10-7~~~~~-|-10-10--------10-|----------------------|--------------------------7~~~~~-|
A|--------------|------------------|-----------------|----------------------|---------------------------------|
E|--------------|------------------|-----------------|----------------------|---------------------------------|
                                        Bb                 G                           Am
                                                                          02:41
e|--------|----15~~-17-12--15----------|-------------------10------------|------------------------|
B|--------|-15----------------12-13-15-|-s-----------13-12----10-10------|--------------br------br|
G|-9--7-7-|----------------------------|-\12~~~~~-12---------------------|-------10-12-12-10--9-9-|
D|--------|----------------------------|----------------------------12-9-|-10-12------------------|
A|--------|----------------------------|---------------------------------|------------------------|
E|--------|----------------------------|---------------------------------|------------------------|

          F                             Bb                           G
e|----------|--------------------------|--------------|-------------|-------------|-------------|
B|----------|--------10--------10------|--s-------s---|---------s---|---s---------|---s---------|
G|-7-9-10-9-|-7----7----7----7----7----|-7\9-10-10\12-|-10-12-12\14-|-14\15-14-12-|-15\17-15-14-|
D|----------|---10--------10--------10-|--------------|-------------|-------------|-------------|
A|----------|--------------------------|--------------|-------------|-------------|-------------|
E|----------|--------------------------|--------------|-------------|-------------|-------------|

   Am                          F
02:58                           b      b  b  b  b  b  b   b      b  b  b  b  b  b   
e|------s------|---s---------|-15~~~~-15-15-15-15-15-15--15~~~~-15-15-15-15-15-15-|
B|-15-15\17-18-|-18\20-18-17-|----------------------------------------------------|
G|-------------|-------------|----------------------------------------------------|
D|-------------|-------------|----------------------------------------------------|
A|-------------|-------------|----------------------------------------------------|
E|-------------|-------------|----------------------------------------------------|

    b      b  b  b  b  b  b   b      b  b  b  b  b  b  
e|-15~~~~-15-15-15-15-15-15--15~~~~-15-15-15-15-15-15~~~~-|
B|--------------------------------------------------------|
G|--------------------------------------------------------|
D|--------------------------------------------------------|
A|--------------------------------------------------------|
E|--------------------------------------------------------|


PIANO OUTRO
************


ENJOY.........
Добавлено: 23.06.2016
Другие материалы по этой песне:
  • Аккорды и текст

Страница создана 23.06.2016
http://primanota.ru/patrick-van-zandwijk/confrontation-chords.htm
Привет, Гость.
Предлагаем пройти революционный курс по гитаре.
Подарок от PrimaNota.Ru, забирай!