PrimaNota.ru - самый крупный в мире бесплатный архив песенных текстов, аккордов, табулатур и нот


Patrick Sweany - After Awhile - таба, видео

Регистрация Запомнить меня
Войти через:  Facebook Google Twitter Vk Yandex Mail.ru

Patrick Sweany - After Awhile - таба, видео

Печатать
Просмотров: 87
-------------------------------------------------------------------------------
                             After Awhile - Patrick Sweaty
-------------------------------------------------------------------------------
Tabbed by: dgtr23
Tuning: E-Standard


e|-------------3----------------------------------------| Intro
B|---3/5--3/5-----5--3--1-----1/3--1--------------------|
G|-------------------------2----------------------------|
D|----------------------------------------7--5----------|
A|----------------------------------------------7-------|
E|-------------------------------------------------x16--|


     Worry         Worry  All Day  Long    Hear Me  Hear Me
e|-----------------3-------------------------------------------------| Verse A
B|---3/5----3/5-------5--3--1-----1/3--1-----------------------------|
G|-----------------------------2-----------5-------7--5--7--5--5--7--|
D|-----------------------------------------5--7----7--5--7--5--------|
A|--------------------------------------------7----------------------|
E|-------------------------------------------------------------------|


     Sit   Back, Get To Sing A Worried Song Hear Me Hear Me
e|--------------------------------------------------------------------|
B|---3/5----3/5--3--1----------1--3-----------------------------------| Verse B
G|----------------------2--------------2----5-------7--5--7--5--5--7--|
D|------------------------------------------5--7----7--5--7--5--------|
A|---------------------------------------------7----------------------|
E|--------------------------------------------------------------------|


     After A  While You're Gonna See  What it  Means  To   Me
e|---------------------------------------------------------------| Chorus A
B|---8--5--3-----------------------------------3/5-----3------------------|
G|------------5-----5--3---------5/7--5--3----------------5------|
D|------------------------5-----------------5----------------7---|
A|---------------------------------------------------------------|
E|---------------------------------------------------------------|


     After A  While You're Gonna Know
e|-----------------------------------------------| Chorus B
B|---8--5--3-------------------------------------|
G|------------5-----5------3-----5/7----5--7--2--|
D|----------------------------5---------5--7--2--|
A|--------------------------------------------0--|
E|-----------------------------------------------|

     I  Know The Road Gonna Be  Slow,  Gonna Be Rough And Rocky
e|--------------------------------------------------------------------| Variation
B|---8--5----3-----------------------------------3/5---3/5--3---------|
G|---------------5-----5--3------5/7----5--3-------------------5------|
D|---------------------------5----------------5-------------------7---|
A|--------------------------------------------------------------------|
E|--------------------------------------------------------------------|



************************************

| /   slide up
| \   slide down
| h   hammer-on
| p   pull-off
| ~   vibrato
| +   harmonic
| x   Mute note
| b   Bend
| pb  Pre-bend
| br  Bend release
| pbr Pre-bend release
| brb Bend release bend

************************************
Добавлено: 26.12.2015
Вам также может быть интересно:
Другие материалы по этой песне:
  • Аккорды и текст

Страница создана 26.12.2015
http://primanota.ru/patrick-sweany/after-awhile-chords.htm
Привет, Гость.
Предлагаем пройти революционный курс по гитаре.
Подарок от PrimaNota.Ru, забирай!