PrimaNota.ru - самый крупный в мире бесплатный архив песенных текстов, аккордов, табулатур и нот


Patrick Sebastien - Pourvu Que Ca Dure - таба, видео

Регистрация Запомнить меня
Войти через:  Facebook Google Twitter Vk Yandex Mail.ru

Patrick Sebastien - Pourvu Que Ca Dure - таба, видео

Печатать
Просмотров: 153
--------------------------------------------------------------------
Pourvu que ça dure – Patrick Sébastien
---------------------------------------------------------------------
Tabbed by: Sabliley
Email: holgui@hotmail.co.uk

Tuning: Standard E-A-D-G-B-e

INTRO & MAIN RIFF
e|-------------------8-----------------------------------------------|
B|---8-11---11-11-11---11-9---6-9---9-9-9-11-8-----------------------|
G|-8------8-----------------7-----7----------------------------------|
D|-------------------------------------------------------------------|
A|-------------------------------------------------------------------|
E|-------------------------------------------------------------------|

e|-------------------8-----------------------------------------------|
B|---8-11---11-11-11---11-9---6-9---9-9-9----------------------------|
G|-8------8-----------------7-----7-------7-8------------------------|
D|-------------------------------------------------------------------|
A|-------------------------------------------------------------------|
E|-------------------------------------------------------------------|

CHORDS
   Eb  Bb7  Ab  F7  E  B7
e|-6----6---4---8---7--7-|
B|-8----6---4---10--9--7-|
G|-8----7---5---8---9--8-|
D|-8----6---6---10--9--7-|
A|-6----8---6---8---7--9-|
E|-X----6---4---X---X--7-|


Eb  (x2)

VERSE 1
Eb
T'es en pleine bourre et t'as la patate
                                Bb7
Même si ce soir, t'as perdu aux cartes

T'as plein de copains autour de la table
                                      Eb
Même si ta chambre n'est pas très confortable

Tu plais aux gonzesses, les minauds te badent
                                 Bb7
Même si ta carte bleue est toute froide

T'as plus une tune pour payer ton taudis
                                            Eb
Mais t'as quatre brunes dans le fond de ton lit
               Ab                       Eb
Au lieu de gueuler contre ceux que t'as pas,
            F7                       Bb7
Chante le refrain que chantait ton papa


CHORUS
              Eb
Pourvu que ça dure, la belle figure
                                        Bb7
Les fêtes à Bayonne, les soirs sur la Garonne

Tant que t'as de l'eau pour laver la belette
                                        Eb
Tas pas les carreaux au moins t'as la fenêtre

Pourvu que ça dure la belle aventure


                                            Bb7
Le ciel de Narbonne et les remparts de Carcassonne

Tant que t'as des yeux et le cœur sur la main
                                               Eb
C'est déjà beaucoup mieux que si c'était moins bien

MAIN RIFF
La la la la la


Eb (x2)

Eb
Pas de confiture, au café le matin
                                     Bb7
T'as pris l'habitude des tartines au pain

Ta chemise rouge a des trous pleins les manches
                                             Eb
T'es presque à la mode, les pauvres c'est tendance

Tu joues de la gratte dans un petit groupe
                                           Bb7
Deux concerts par an, ça peut pas payer la soupe

Mais t'as la sanquette, et de belles mirettes
                                           Eb
Les cartouches pleines et le fusil qui va avec
               Ab                       Eb
Au lieu de gueuler contre ceux que t'as pas
            F7                       Bb7
Chante le refrain que chantait ton papa


CHORUS

Allez!

MAIN RIFF
La la la la la

Et maintenant tous ensemble !

MAIN RIFF (a semi-tone higher)
La la la la la


LAST CHORUS

E
Pourvu que ça dure, la belle figure
                                        B7
Les fêtes à Bayonne, les soirs sur la Garonne

Tant que t'as de l'eau pour laver la belette
                                        E
Tas pas les carreaux au moins t'as la fenêtre

Pourvu que ça dure la belle aventure
                                            B7
Le ciel de Narbonne et les remparts de Carcassonne

Tant que t'as des yeux et le cœur sur la main
                                               E
C'est déjà beaucoup mieux que si c'était moins bien
E
BIEN
http://www.patricksebastien.fr/
Добавлено: 22.03.2012
Вам также может быть интересно:
Другие материалы по этой песне:

Страница создана 22.03.2012
http://primanota.ru/patrick-sebastien/pourvu-que-ca-dure-chords.htm
Привет, Гость.
Предлагаем пройти революционный курс по гитаре.
Подарок от PrimaNota.Ru, забирай!