PrimaNota.ru - самый крупный в мире бесплатный архив песенных текстов, аккордов, табулатур и нот


Patrick Park - Love Like Swords - таба, видео

Регистрация Запомнить меня
Войти через:  Facebook Google Twitter Vk Yandex Mail.ru

Patrick Park - Love Like Swords - таба, видео

Печатать
Просмотров: 88
Уроки эстрадного вокала в Санкт-Петербурге
Love Like Swords - Patrick Park

The timing and frequency of the high notes in the intro
is off, so you will have to get the timing on your own
by listening to the song, but it will give you the basic
idea. Then, you just sing along with it! The intro simply
repeats through verse 1 until the chorus

INTRO

E-------------------------------------    -------|
B-------------------------------------    -------|
G-------------------------------------    -------|
D-4-----------4---4----4---------4--4-    -1---1-|
A-------------------------------------    -------|
E-2-2-2-2-2-2-2-2-2-2-2-2-2-2-2-2-2-2-(x3)-2-2-2-|(x2)

E------------------------------|
B------------------------------|
G------------------------------|
D----------------4--4-4--------|
A--2---2--4--4-4---------2---2-|
E -2-2-2-2-2-2-2-2-2-2-2-2-2-2-|(repeat throughout verse)

VERSE 1

        I can see enough turning in my brain

        but that's the way I like it, rough against the grain

        and all dressed in white and shining like a light

        how it all comes rushing back when everything is quiet


BRIDGE (hum along with the melody of the notes)

E-----------------------------|
B------2-4-2------------------|
G----3-------3----------------|
D--4-----------4---1--1----1--|
A----------------4-------4----|
E-2-2-2-2-2-2-2-2-2-2-2-2-2-2-|

VERSE 2

        But I can see the signs and I can hear the call

        it's this feelin' that I get just before I fall

        and everything will change no matter what we do

        where you gonna be when that debt comes due?

BRIDGE (hum along with the melody of the notes)
E---------------------------------------|
B------2-4-2----------------------------|
G----3-------3--------------------------|
D--4-----------4---1--1---1---1---1-----|
A----------------4----------4--------4--|
E-2-2-2-2-2-2-2-2-2-2-2-2-2-2-2-2-2-2-2-| (goes into chorus so slide up to the bar chord on fret 7)

CHORUS (I just included which chords he plays, just rapidly finger pick them to get right sound)

E---------------------------------------------------|
B--------7------------------------------------------|
G-8------8------3---10-----8-------3-------7-----10-|
D-9------8------4---11-----9-------4-------8-----11-|
A-9------6------4---11-----9-------4-------8-----11-|
E-7-------------2---9------7-------2-------6-----9--|
 storm..knock...do..do...gather...wear...we'll...we'll

        The storm outside's been knockin' down our doors

        Do you feel weak? Do you feel cold? We'll gather up hearts

        and wear our love like swords

        We'll build our world, we'll build our world

BRIDGE (hum along with the melody of the notes)

E---------------------------------------|
B------2-4-2----------------------------|
G----3-------3--------------------------|
D--4-----------4---1--1---1---1---1-----|
A----------------4----------4--------4--|
E-2-2-2-2-2-2-2-2-2-2-2-2-2-2-2-2-2-2-2-| (goes into chorus so slide up to the bar chord on fret 7)

VERSE 3

        Well I can hear your drum beating sweet and long

        With the tide that pulls me in and never lets me go

        While Everything around is turning like the sea

        drowning in your flames and burning in your breeze

BRIDGE
E---------------------|
B------2-4-2----------|
G----3-------3--------|
D--4-----------4---1--|
A----------------4----|
E-2-2-2-2-2-2-2-2-2-2-|

CHORUS

        The storm outside's been knockin down our doors

        Do you feel weak? Do you feel cold? We'll gather up hearts

        and wear our love like swords

        We'll build our world, we'll build our world

SOLO

E--------------9-----------4---4---6---6-|
B-11p9h11p9h11---11p9--6-----6---7---7---|
G----------------------------------------|
D----------------------------------------|
A-9--9--9--9--9--9--9--4--4--4---6--6--6-|
E----------------------------------------|

E--------9h11p9--------------4----4---6---6--|
B-11p9h11------11p9h11p9--6-----6---7---7----|
G--------------------------------------------|
D--------------------------------------------|
A-9--9--9--9--9--9--9--9--4--4--4---6--6--6--|
E--------------------------------------------| (x2)

E-------2-4p2-----------4-4---4---4--|
B-4p2h4-------4p2h4--7---7--6---6----|
G------------------------------------|
D------------------------------------|
A-2--2--2--2--2--2---4--4--4--4--4---|
E------------------------------------|

E-11----11-9----------11----11-9----------|
B----11------9-11-7------11------9-11-7---|
G-----------------------------------------|
D-----------------------------------------|
A-6--6--6--6--6--6--6--6--6--6--6--6--6---|
E-----------------------------------------|

BRIDGE

E--------------------------------------|
B-------2-4-2--------------------------|
G------3-------3-----------------------|
D--4-4-----------4---1--1--1---1---1---|
A------------------4---------4---------|
E-2-2-2-2-2-2-2-2-2-2-2-2-2-2-2-2-2-2--|

(Repeat Chorus)

        The storm outside's been knockin down our doors

        Do you feel weak? Do you feel cold? We'll gather up hearts

        and wear our love like swords

        We'll build our world, we'll build our world

Enjoy!

A&L
Добавлено: 27.07.2015
Другие материалы по этой песне:
  • Аккорды и текст

Страница создана 27.07.2015
http://primanota.ru/patrick-park/love-like-swords-chords.htm
Привет, Гость.
Предлагаем пройти революционный курс по гитаре.
Подарок от PrimaNota.Ru, забирай!