PrimaNota.ru - самый крупный в мире бесплатный архив песенных текстов, аккордов, табулатур и нот


Patrick Nuo - Beautiful - текст песни, таба, видео

Регистрация Запомнить меня
Войти через:  Facebook Google Twitter Vk Yandex Mail.ru

Patrick Nuo - Beautiful - текст песни, таба, видео

Печатать
Просмотров: 284
Beautiful - Patrick Nuo
tabbed by RedQ

Standard Tuning
Capo 1st


INTRO C--G


 C
Like a thunderstorm on a summer day
  G
She came out of nowhere and I can say 
 C
She's a supernova shining through the night 
  G
And never sleeping satellite 


 C
She's a damn good reason for the sun to rise 
  G
When you see her smile in the morning light 
 C
And when she cries, she cries a wishing well 
 G				Em
Played hide and seek with the hounds of hell 


 Am                       C
She throws you down to take you high 
 D
into her private sky 

  
 E-------------------------------------------------------------------|
 B-------------------------------------------------------------------|
 G-------------------------------------------------------------------|
 A-------------------------------------------------------------------|
 E----------8---8---8---8---8---8---8---8---8---8---8---8---8---8--8-|
   She's so beautiful,  beautiful,  beautiful,  beautiful,  beautiful 

 E--------------------------------------------------------|
 B--------------------------------------------------------|
 G--------------------------------------------------------|
 A--------------------------------------------------------|
 E-------3---3---3---3---3---3---3---3---3---3---3---3----|
         beautiful,  beautiful,  beautiful,  beautiful, 

 E------------------------------------------------------------------|
 B------------------------------------------------------------------|
 G------------------------------------------------------------------|
 A------------------------------------------------------------------|
 E----------8---8---8---8---8---8---8---8---8---8---8---8---8---8---|
            magical,    mystical,     irresistible,     cosmical 

 E-----------------------------|
 B-----------------------------|
 G-----------------------------|
 A-----------------------------|
 E--3---3---3---3---3----2-----|................C
   a wonderful overkill but most of all beautiful 


 C		  G
ooooooh, I have 
		  C
ooooooh, she's so 
		  D
ooooooh, I have 
	 C		  G
Beautiful, mmm so beautiful 


 C
You wanna call her name from the highest hill 
 G
And she's better than a five million dollar bill 
 C
She swims with you to atlantis coast
 G 				Em
to keep you save while the worlds explodes 

 Am
She dives you down, to keep you high
 D 
Inside her velvet sky 


	
 E-------------------------------------------------------------------|
 B-------------------------------------------------------------------|
 G-------------------------------------------------------------------|
 A-------------------------------------------------------------------|
 E----------8---8---8---8---8---8---8---8---8---8---8---8---8---8--8-|
   She's so beautiful,  beautiful,  beautiful,  beautiful,  beautiful 

 E--------------------------------------------------------|
 B--------------------------------------------------------|
 G--------------------------------------------------------|
 A--------------------------------------------------------|
 E-------3---3---3---3---3---3---3---3---3---3---3---3----|
         beautiful,  beautiful,  beautiful,  beautiful, 

 E------------------------------------------------------------------|
 B------------------------------------------------------------------|
 G------------------------------------------------------------------|
 A------------------------------------------------------------------|
 E----------8---8---8---8---8---8---8---8---8---8---8---8---8---8---|
            magical,    mystical,     irresistible,     cosmical 

 E-----------------------------|
 B-----------------------------|
 G-----------------------------|
 A-----------------------------|
 E--3---3---3---3---3----2-----|................C
   a wonderful overkill but most of all beautiful 

C		G
ooooooh, She's so 
		   C
Beautiful, She's so 
		D
ooooooh, I have 
ooooooh, Beautiful 


 C
She's a mermaid whose left her fairy tale 
 G
she wrote a brand new song for the nightingales 
 C
sometimes I think she's invented 
 G				Em
but thank god, she's made of flesh and blood 

 Am					D
She's everything I've ever missed the more 
but most of all, 


she is beautiful, beautiful, beautiful, beautiful, beautiful, beautiful, 
						G
wonderful, powerful, magical, mystical, irresistible overkill 
		C
and most of all beau-ti-ful
 
 C		G
ooooooh, She's so 
		C
beautiful, She's so 
		G
ooooooh, I have 


A wonderful overkill but most of all beautiful
(3x)


ENJOY!
Добавлено: 30.07.2012
Другие материалы по этой песне:
  • Аккорды и текст

Страница создана 25.07.2012
http://primanota.ru/patrick-nuo/beautiful-chords.htm
Привет, Гость.
Предлагаем пройти революционный курс по гитаре.
Подарок от PrimaNota.Ru, забирай!