PrimaNota.ru - самый крупный в мире бесплатный архив песенных текстов, аккордов, табулатур и нот


Patricio Rey - Jijiji - аккорды и текст, таба, бас-таба, видео

Регистрация Запомнить меня
Войти через:  Facebook Google Twitter Vk Yandex Mail.ru

Patricio Rey - Jijiji - аккорды и текст, таба, бас-таба, видео

Печатать
Просмотров: 163
Jijiji
Patricio Rey
		   -##


Title:  ji-ji-ji
Artist: by Patricio Rey y sus Redonditos de Ricota
Album: Oktubre

... i hope u enjoy it.

(The song has a heavy distortion)

Lyrics:
=======

En este film velado en blanca noche
el hijo tenaz de tu enemigo                  (A)
el muy verdugo cena distinguido
una noche de de cristal que se hace a¤icos.

no lo so¤e -!ee‚-eeeeh!
(se enderezo y brindo a tu suerte)
no lo so¤e -!ee‚-eeeeh!                      (B)
y se ofrecio mejor que nunca
no mires por favor! y no prendas la luz...
la imagen te desfigur¢.
                                       ----- (C) solo
este film da una imagen exquisita
esos chicos son como bombas peque¤itas       (A)
el mejor camino a la cueva del perico
para tipos que no duermen por la noche.

no lo so¤e -!ee‚-eeeeh!
ibas corriendo a la deriva
no lo so¤e -!ee‚-eeeeh!                      (B)
los ojos ciegos bien abiertos.
no mires por favor! y no prendas la luz...
la imagen te desfigur¢.

el montaje final es muy curioso
es en verdad realmente entretenido           (A)
vas en la oscura multitud desprevenido
tiranizando a quienes te han querido.

no lo so¤e -!ee‚-eeeeh!
(se enderezo y brindo a tu suerte)
no lo so¤e -!ee‚-eeeeh!                      (B)
y se ofrecio mejor que nunca

no lo so¤e -!ee‚-eeeeh!
ibas corriendo a la deriva
no lo so¤e -!ee‚-eeeeh!                      (B)
los ojos ciegos bien abiertos.
no mires por favor! y no prendas la luz...
la imagen te desfigur¢.


(A) Intro:
=========

   En este film velado en blanca noche          el hijo tenaz de tu enemigo
                                         (two
        (repeat two times)               times)     (repeat two times)
E|--1-----------------------------------|--3--|--0--------------------------|
B|--3-----------------------------------|--3--|--2--------------------------|
G|--2-----------------------------------|--3--|--0--------------------------|
D|--------------------------------------|--2--|--2--------------------------|
A|--------------------------------------|-----|-----------------------------|
E|--------------------------------------|-----|-----------------------------|

                                                una noche de cristal que
   El muy verdugo cena distinguido               se hace a¤icos
                                         (two
        (repeat two times)               times)     (repeat two times)
E|--1-----------------------------------|--3--|--0--------------------------|
B|--3-----------------------------------|--3--|--2--------------------------|
G|--2-----------------------------------|--3--|--0--------------------------|
D|--------------------------------------|--2--|--2--------------------------|
A|--------------------------------------|-----|-----------------------------|
E|--------------------------------------|-----|-----------------------------|




(B) Main Part:
=============

[F] no lo so¤e [Csus] -!ee‚-eeeeh!
[Bb] (se enderezo y brindo a tu suerte) [Dm]
[F] no lo so¤e [Csus] -!ee‚-eeeeh!
[Bb] y se ofrecio mejor que nun[Dm]ca
[Bb] no mires por favor! [F] y no prendas la luz...
[G] la imagen te desfigur¢. [A]


   [F]  [Csus] [Bb]  [Dm]  [G]   [A]

E|--1--|--4--|--6--|-----|--3--|--5--|
B|--3--|--4--|--8--|--5--|--5--|--7--|
G|--3--|--4--|--8--|--7--|--5--|--7--|
D|-----|--4--|-----|--7--|-----|-----|
A|-----|--2--|-----|-----|-----|-----|
E|-----|-----|-----|-----|-----|-----|

(C) Solo
========

E|------------------|--------------------|---------------| E
B|----------8-10-10-|-10-8h10p8----------|---------------| A
G|---7-9-10---------|-----------10-9-7---|-7-7-7-6-6-7-9-| D
D|-7----------------|--------------------|---------------| G
A|------------------|--------------------|---------------| B
E|------------------|--------------------|---------------| E

                                                           _
E|-------------------------------------------------------|  |
B|-8-6---8-6-8-6---8-6-8-6---8-6-------------------------|  |
G|-----9---------9---------9-----9-7- -7-9-10-9-7-6-7----|  | repeat
D|-----------------------------------7-------------------|  l one
A|-------------------------------------------------------|  | time
E|-------------------------------------------------------|  |
                                                           _|

E|-------------------------------|--------------|
B|-------------------------------|--------------|
G|-10~-12-10-9h10p9--------------|--------------|
D|------------------10-10-12-10~-|-10-12-10-12~-|
A|-------------------------------|--------------|
E|-------------------------------|--------------|


E|-----------------10--------10-12~-13h15p13-|-15-13-12h13p12-------------|
B|--------------10----13(15)-----------------|----------------13-13-15-13-|
G|----10-12(14)------------------------------|----------------------------|
D|-12----------------------------------------|----------------------------|
A|-------------------------------------------|----------------------------|
E|-------------------------------------------|----------------------------|


E|-----------------------|--------------10--------------------------------|
B|--------------10-------|-----------------13-10--------------------------|
G|----10-12(14)----12p10-|----10-12(14)----------12(14)12p10----10-12-----|
D|-12--------------------|-12--------------------------------12-------12~-|
A|-----------------------|------------------------------------------------|
E|-----------------------|------------------------------------------------|


E|-15(17)-15(17)-|-15(17)15-13-|-15(17)-15(17)-|-15(17)15p13-15(17)15-13----|
B|---------------|-------------|---------------|-------------------------15-|
G|---------------|-------------|---------------|----------------------------|
D|---------------|-------------|---------------|----------------------------|
A|---------------|-------------|---------------|----------------------------|
E|---------------|-------------|---------------|----------------------------|


E|-------20(22)-20(22)-20~-|
B|----18-------------------|
G|-19----------------------|
D|-------------------------|
A|-------------------------|
E|-------------------------|

=====================================================================
Some spanish words: Esta es mi primer tab y va con dedacatoria :b ...
a la gente recontraflashera que conoci en #baires
ganja, la morocha, ramaloco, sabbath, cecilia y zigi.

tim_drake/drake1998/dreddie/rodrigo

=====================================================================

That's it.     
Добавлено: 06.08.2013
Другие материалы по этой песне:

Страница создана 04.03.2012
http://primanota.ru/patricio-rey/jijiji-chords.htm
Привет, Гость.
Предлагаем пройти революционный курс по гитаре.
Подарок от PrimaNota.Ru, забирай!