PrimaNota.ru - самый крупный в мире бесплатный архив песенных текстов, аккордов, табулатур и нот


Patrice Rushen - Forget Me Nots - бас-таба, видео

Регистрация Запомнить меня
Войти через:  Facebook Google Twitter Vk Yandex Mail.ru

Patrice Rushen - Forget Me Nots - бас-таба, видео

Печатать
Просмотров: 449
Авторы: Terri McFaddin, Patrice Rushen, Freddie Washington

Patrice Rushen - Forget Me Nots
Standard Tuning: EADG
Tabbey By: RTBM

It's all here enjoy the original!! 
                                                 ending     ending  
Main theme: 4x  a                    b          b1ste 1x    b2de 3x
G|---------7-------------|------7---------1---|---------|----------|
D|----4--------------224-|--4------0h2h444-4--|----22h4-|---2-4-2--|
A|------2/5-5-577-244----|---2/5-5----------2-|-244-----|-24-4---4-|
E|-0h2-------------------|-2------------------|---------|----------|


Verse: 4x
G|----7---------------------------------------|
D|----------------22h4--4------4--------------|
A|-4/5-55-577\-244----------------------------|
E|---------------------2-20-0h2-20-5-7p5h7-2--|


Break 
G|--------------------------------------------|
D|-22-------------22----22--------------2h4---|
A|---2--------------(2)---2-------------------|
E|----03-300-32-03---------03-300-32-03-------|


Добавлено: 25.06.2012
Вам также может быть интересно:
Другие материалы по этой песне:

Страница создана 01.05.2012
http://primanota.ru/patrice-rushen/forget-me-nots-chords.htm
Привет, Гость.
Предлагаем пройти революционный курс по гитаре.
Подарок от PrimaNota.Ru, забирай!