PrimaNota.ru - самый крупный в мире бесплатный архив песенных текстов, аккордов, табулатур и нот


Patrice Rushen - Forget Me Not - аккорды и текст, таба, видео

Регистрация Запомнить меня
Войти через:  Facebook Google Twitter Vk Yandex Mail.ru

Patrice Rushen - Forget Me Not - аккорды и текст, таба, видео

Печатать
Просмотров: 174
Forget Me Not
Patrice Rushen
"Forget Me Not" by Patrice Rushen

There are just two differently-chorded parts to this song:


1.

F#m7 F#m7 Dm7      Dm7     Em      Em   C#m7 C#m7  
          sending  you for-get me  nots        
---------------------------------------------------
Dm7 Dm7     Bm7     Bm7   g#m7b5 g#m7b5 C#7#9 C#7#9
         to help me to re-mem -  ber 
---------------------------------------------------

2.

---------------------------------------------------
Dm7 Dm7 Dm7        Dm7    Bm7   Bm7  Em Em
        those were the ti-imes we  had 
---------------------------------------------------       
F#m7    F#m7 F#m7    F#m7   F#m7    F#m7   F#m7
sharing a   joy that we tho-ught wo-uld la-ast 
---------------------------------------------------


Keep the chords beating on even 8ths, and sing the lyrics 
approximately according to their spacial placement here.
Also, listening to the song would be extremely helpful. 
Here are the chords, as I've figured them. Number on the
bottom indicates the fret, "X" means "don't play that
string", number indicate corresponding finger. Omit some
notes, exchange barres for fingertips, etc -- use free-
form. Convention says "minor chord letters in lower case, 
major chord letters in upper case". the letter "b" means 
"flat".


f#m7 - f sharp minor 7

|---1--|------|------|
|---1--|---2--|------|
|---1--|------|------|
|---1--|------|---3--|
|---1--|------|------|
|------|------|------|X
    9


DM7 - D major 7

|---1--|------|------|
|---1--|------|---4--|
|---1--|---2--|------|
|---1--|------|---3--|
|---1--|------|------|
|------|------|------|X
    5


Em - E major

|---1--|------|------|
|---1--|------|---3--|
|---1--|------|---3--|
|---1--|------|---3--|
|---1--|------|------|
|------|------|------|X
    7


c#m7 - c sharp minor 7

|---1--|------|------|
|---1--|---2--|------|
|---1--|------|------|
|---1--|------|---3--|
|---1--|------|------|
|------|------|------|X
    4


bm7 - b minor 7

|---1--|------|------|
|---1--|------|------|
|---1--|------|------|
|---1--|------|------|
|---1--|------|---3--|
|---1--|------|------|
    7

g#m7b5 - g sharp minor 7 flat 5

|------|------|------|X
|---1--|------|------|
|------|---4--|------|
|------|---3--|------|
|------|------|------|X
|------|---2--|------|
    3

    
C#7#9 - C sharp 7 sharp 9

|------|------|------|X
|------|------|---4--|
|------|---3--|------|
|---1--|------|------|
|------|---2--|------|
|------|------|------|X
    3
    
Jazz up the rhythm -- the aforementioned "even 8th"s are
just for demonstration purposes.

Figured out by Matthew Teigen, with his mp3 player and 
acoustic guitar. My contribution to the internet. 
mjteigen@gmail.com
AIM - luminousturtle
Добавлено: 25.05.2012
Вам также может быть интересно:
Другие материалы по этой песне:
  • Аккорды и текст

Страница создана 25.05.2012
http://primanota.ru/patrice-rushen/forget-me-not-chords.htm
Привет, Гость.
Предлагаем пройти революционный курс по гитаре.
Подарок от PrimaNota.Ru, забирай!