PrimaNota.ru - самый крупный в мире бесплатный архив песенных текстов, аккордов, табулатур и нот


Pathology - Imprisoned By Fear - таба, видео

Регистрация Запомнить меня
Войти через:  Facebook Google Twitter Vk Yandex Mail.ru

Pathology - Imprisoned By Fear - таба, видео

Печатать
Просмотров: 119
PATHOLOGY
IMPRISONED BY FEAR
THE TIME OF GREAT PURIFICATION
GUITAR + BASS

Db :----------------|----------------|----------------|----------------|
Ab :----------------|----------------|----------------|----------------|
E  :----------------|----------------|----------------|----------------|
B  :----------------|----------------|----------------|----------------|
Gb :----------------|----------------|----------------|----------------|
B  :----------------|----------------|----------------|----------------|

Db :----------------|----------------|----------------|----------------|
Ab :----------------|----------------|----------------|----------------|
E  :----------------|----------------|----------------|----------------|
B  :----------------|----------------|----------------|----------------|
Gb :----------------|----------------|----------------|----------------|
B  :----------------|----------------|----------------|----------------|

E  :----------------|----------------|----------------|----------------|
B  :----------------|----------------|----------------|----------------|
Gb :----------------|----------------|----------------|----------------|
B  :----------------|----------------|----------------|----------------|
                                                                       

============================================================================

Db :| -------------------------------|----------------|----------------|
Ab :| -------------------------------|----------------|----------------|
E  :|*-------------------------------|----------------|----------------|
B  :|*-------------------------------|----------------|----------------|
Gb :| ----------------6-6-6-6-6-6-6-6|3-3-5---3---6---|5-5-3-3-5---6---|
B  :| 1-1-1-1-1-1-1-1----------------|1-1-3---1---4---|3-3-1-1-3---4---|

Db :| -------------------------------|----------------|----------------|
Ab :| -------------------------------|----------------|----------------|
E  :|*-------------------------------|----------------|----------------|
B  :|*-------------------------------|----------------|----------------|
Gb :| -------------------------------|----------------|----------------|
B  :| -------------------------------|----------------|----------------|

E  :| -------------------------------|----------------|----------------|
B  :|*-------------------------------|----------------|----------------|
Gb :|*----------------6---6---6---6--|----------------|----------------|
B  :| 1---1---1---1------------------|1-1-3---1---4---|3-3-1-1-3---4---|
                                                                       

============================================================================

Db :----------------|-------------------------------|----------------|
Ab :----------------|-------------------------------|----------------|
E  :----------------|-------------------------------|----------------|
B  :----------------|-------------------------------|----3-------1---|
Gb :5-5-3-3-5---6---|----------------5-5-5-5-5-5-5-5|0-0-3---0-0-1---|
B  :3-3-1-1-3---4---|0-0-0-0-0-0-0-0----------------|0-0-----0-0-----|

Db :----------------|-------------------------------|----------------|
Ab :----------------|-------------------------------|----------------|
E  :----------------|-------------------------------|----------------|
B  :----------------|-------------------------------|----------------|
Gb :----------------|-------------------------------|----------------|
B  :----------------|-------------------------------|----------------|

E  :----------------|-------------------------------|----------------|
B  :----------------|-------------------------------|----------------|
Gb :----------------|----------------5---5---5---5--|----------------|
B  :3-3-1-1-3---4---|0---0---0---0------------------|0-0-3---0-0-1---|
                                                                     

============================================================================

Db :----------------|----------------|-------------------------------|
Ab :----------------|----------------|-------------------------------|
E  :----------------|----------------|-------------------------------|
B  :----4-------3---|----------------|-------------------------------|
Gb :0-0-4---0-0-3---|--------------3-|----------------6-6-6-6-6-6-6-6|
B  :0-0-----0-0-----|0-0-4-3-1-0-1---|1-1-1-1-1-1-1-1----------------|

Db :----------------|----------------|-------------------------------|
Ab :----------------|----------------|-------------------------------|
E  :----------------|----------------|-------------------------------|
B  :----------------|----------------|-------------------------------|
Gb :----------------|----------------|-------------------------------|
B  :----------------|----------------|-------------------------------|

E  :----------------|----------------|-------------------------------|
B  :----------------|----------------|-------------------------------|
Gb :----------------|--------------3-|----------------6---6---6---6--|
B  :0-0-4---0-0-3---|0-0-4-3-1-0-1---|1---1---1---1------------------|
                                                                     

============================================================================

Db :----------------|----------------|----------------|
Ab :----------------|----------------|----------------|
E  :----------------|----------------|----------------|
B  :----------------|----------------|----------------|
Gb :3-3-5---3---6---|5-5-3-3-5---6---|5-5-3-3-5---6---|
B  :1-1-3---1---4---|3-3-1-1-3---4---|3-3-1-1-3---4---|

Db :----------------|----------------|----------------|
Ab :----------------|----------------|----------------|
E  :----------------|----------------|----------------|
B  :----------------|----------------|----------------|
Gb :----------------|----------------|----------------|
B  :----------------|----------------|----------------|

E  :----------------|----------------|----------------|
B  :----------------|----------------|----------------|
Gb :----------------|----------------|----------------|
B  :1-1-3---1---4---|3-3-1-1-3---4---|3-3-1-1-3---4---|
                                                      

============================================================================

Db :-------------------------------|----------------|----------------|
Ab :-------------------------------|----------------|----------------|
E  :-------------------------------|----------------|----------------|
B  :-------------------------------|----3-------1---|----4-------3---|
Gb :----------------5-5-5-5-5-5-5-5|0-0-3---0-0-1---|0-0-4---0-0-3---|
B  :0-0-0-0-0-0-0-0----------------|0-0-----0-0-----|0-0-----0-0-----|

Db :-------------------------------|----------------|----------------|
Ab :-------------------------------|----------------|----------------|
E  :-------------------------------|----------------|----------------|
B  :-------------------------------|----------------|----------------|
Gb :-------------------------------|----------------|----------------|
B  :-------------------------------|----------------|----------------|

E  :-------------------------------|----------------|----------------|
B  :-------------------------------|----------------|----------------|
Gb :----------------5---5---5---5--|----------------|----------------|
B  :0---0---0---0------------------|0-0-3---0-0-1---|0-0-4---0-0-3---|
                                                                     

============================================================================

Db :---------------- 1|----------------|----------------|------------------|
Ab :---------------- ||----------------|----------------|------------------|
E  :----------------*||----------------|----------------|------------------|
B  :----------------*||----------------|----------------|------------------|
Gb :0-0-1---3---4--- ||------3-------6-|------3-------6-|--------9-------6-|
B  :0-0-1---3---4--- ||0-1-4---0-4-7---|0-1-4---0-4-7---|0-7-10----0-4-7---|

Db :---------------- 1|----------------|----------------|------------------|
Ab :---------------- ||----------------|----------------|------------------|
E  :----------------*||----------------|----------------|------------------|
B  :----------------*||----------------|----------------|------------------|
Gb :---------------- ||----------------|----------------|------------------|
B  :---------------- ||----------------|----------------|------------------|

E  :---------------- 1|----------------|----------------|------------------|
B  :----------------*||----------------|----------------|------------------|
Gb :----------------*||----------------|----------------|------------------|
B  :0-0-1---3---4--- ||0-1-4-4-0-4-7-7-|0-1-4-4-0-4-7-7-|0-7-10-10-0-4-7-7-|
                                                                           

============================================================================

Db :------------------|----------------|----------------|------------------|
Ab :------------------|----------------|----------------|------------------|
E  :------------------|----------------|----------------|------------------|
B  :4-5-4---7-4-----4-|----------------|----------------|------------------|
Gb :------6-----6-3---|----3-------6---|----3-------6---|-----9--------6---|
B  :------------------|0-1---4-0-4---7-|0-1---4-0-4---7-|0-7----10-0-4---7-|

Db :------------------|----------------|----------------|------------------|
Ab :------------------|----------------|----------------|------------------|
E  :------------------|----------------|----------------|------------------|
B  :------------------|----------------|----------------|------------------|
Gb :------------------|----------------|----------------|------------------|
B  :------------------|----------------|----------------|------------------|

E  :------------------|----------------|----------------|------------------|
B  :------------------|----------------|----------------|------------------|
Gb :----------3-3-3-3-|----------------|----------------|------------------|
B  :7---7-7-7---------|0-1-4-4-0-4-7-7-|0-1-4-4-0-4-7-7-|0-7-10-10-0-4-7-7-|
                                                                           

============================================================================

Db :------------------|----------------|----------------|------------------|
Ab :------------------|----------------|----------------|------------------|
E  :--------------8---|----------------|----------------|------------------|
B  :4-5-4---7-4-----7-|----------------|----------------|------------------|
Gb :------6-----6-----|------3-------6-|------3-------6-|--------9-------6-|
B  :------------------|0-1-4---0-4-7---|0-1-4---0-4-7---|0-7-10----0-4-7---|

Db :------------------|----------------|----------------|------------------|
Ab :------------------|----------------|----------------|------------------|
E  :------------------|----------------|----------------|------------------|
B  :------------------|----------------|----------------|------------------|
Gb :------------------|----------------|----------------|------------------|
B  :------------------|----------------|----------------|------------------|

E  :------------------|----------------|----------------|------------------|
B  :------------------|----------------|----------------|------------------|
Gb :3---3-3-3-6-6-6-6-|----------------|----------------|------------------|
B  :------------------|0-1-4-4-0-4-7-7-|0-1-4-4-0-4-7-7-|0-7-10-10-0-4-7-7-|
                                                                           

============================================================================

Db :------------------|----------------|----------------|------------------|
Ab :------------------|----------------|----------------|------------------|
E  :--------------8---|----------------|----------------|------------------|
B  :4-5-4---7-4-----7-|----------------|----------------|------------------|
Gb :------6-----6-----|----3-------6---|----3-------6---|-----9--------6---|
B  :------------------|0-1---4-0-4---7-|0-1---4-0-4---7-|0-7----10-0-4---7-|

Db :------------------|----------------|----------------|------------------|
Ab :------------------|----------------|----------------|------------------|
E  :------------------|----------------|----------------|------------------|
B  :------------------|----------------|----------------|------------------|
Gb :------------------|----------------|----------------|------------------|
B  :------------------|----------------|----------------|------------------|

E  :------------------|----------------|----------------|------------------|
B  :------------------|----------------|----------------|------------------|
Gb :----------3-3-3-3-|----------------|----------------|------------------|
B  :7---7-7-7---------|0-1-4-4-0-4-7-7-|0-1-4-4-0-4-7-7-|0-7-10-10-0-4-7-7-|
                                                                           

============================================================================

Db :------------------|----------------|----------------|----------------|
Ab :------------------|----------------|----------------|----------------|
E  :------------------|----------------|----------------|----------------|
B  :4-5-4---7-4-----4-|7-8-7-----------|----------------|----------------|
Gb :------6-----6-3---|5-6-5---0---1---|5---4---0---1---|0---4---3---1---|
B  :------------------|--------0---1---|5---4---0---1---|0---4---3---1---|

Db :------------------|----------------|----------------|----------------|
Ab :------------------|----------------|----------------|----------------|
E  :------------------|----------------|----------------|----------------|
B  :------------------|----------------|----------------|----------------|
Gb :------------------|----------------|----------------|----------------|
B  :------------------|----------------|----------------|----------------|

E  :------------------|----------------|----------------|----------------|
B  :------------------|----------------|----------------|----------------|
Gb :3---3-3-6-5-5-5-5-|5-6-5-----------|----------------|----------------|
B  :------------------|--------0---1---|5---4---0---1---|0---4---3---1---|
                                                                         

============================================================================

Db :----------------|----------------|----------------|----------------|
Ab :----------------|----------------|----------------|----------------|
E  :----------------|----------------|----------------|----------------|
B  :----------------|7-8-7-----------|----------------|----------------|
Gb :0---1---5---4---|5-6-5---0---1---|5---4---0---1---|0---4---3---1---|
B  :0---1---5---4---|--------0---1---|5---4---0---1---|0---4---3---1---|

Db :----------------|----------------|----------------|----------------|
Ab :----------------|----------------|----------------|----------------|
E  :----------------|----------------|----------------|----------------|
B  :----------------|----------------|----------------|----------------|
Gb :----------------|----------------|----------------|----------------|
B  :----------------|----------------|----------------|----------------|

E  :----------------|----------------|----------------|----------------|
B  :----------------|----------------|----------------|----------------|
Gb :----------------|5-6-5-----------|----------------|----------------|
B  :0---1---5---4---|--------0---1---|5---4---0---1---|0---4---3---1---|
                                                                       

============================================================================

Db :-----------------|----------------|----------------|----------------|
Ab :-----------------|----------------|----------------|----------------|
E  :-----------------|----------------|----------------|----------------|
B  :8-11-8-0-7-8-7-0-|7-8-7-----------|----------------|----------------|
Gb :-----------------|5-6-5---0---1---|5---4---0---1---|0---4---3---1---|
B  :-----------------|--------0---1---|5---4---0---1---|0---4---3---1---|

Db :-----------------|----------------|----------------|----------------|
Ab :-----------------|----------------|----------------|----------------|
E  :-----------------|----------------|----------------|----------------|
B  :-----------------|----------------|----------------|----------------|
Gb :-----------------|----------------|----------------|----------------|
B  :-----------------|----------------|----------------|----------------|

E  :-----------------|----------------|----------------|----------------|
B  :-----------------|----------------|----------------|----------------|
Gb :-----------------|5-6-5-----------|----------------|----------------|
B  :8--8-8-8-7-7-7-7-|--------0---1---|5---4---0---1---|0---4---3---1---|
                                                                        

============================================================================

Db :----------------|----------------|----------------|----------------|
Ab :----------------|----------------|----------------|----------------|
E  :----------------|----------------|----------------|----------------|
B  :----------------|7-8-7-----------|----------------|----------------|
Gb :0---1---5---4---|5-6-5---0---1---|5---4---0---1---|0---4---3---1---|
B  :0---1---5---4---|--------0---1---|5---4---0---1---|0---4---3---1---|

Db :----------------|----------------|----------------|----------------|
Ab :----------------|----------------|----------------|----------------|
E  :----------------|----------------|----------------|----------------|
B  :----------------|----------------|----------------|----------------|
Gb :----------------|----------------|----------------|----------------|
B  :----------------|----------------|----------------|----------------|

E  :----------------|----------------|----------------|----------------|
B  :----------------|----------------|----------------|----------------|
Gb :----------------|5-6-5-----------|----------------|----------------|
B  :0---1---5---4---|--------0---1---|5---4---0---1---|0---4---3---1---|
                                                                       

============================================================================

Db :----------------|------------------|-------------------|
Ab :----------------|------------------|-------------------|
E  :----------------|------------------|-------------------|
B  :5-7-5-0-4-8-4-0-|------------------|-------------------|
Gb :----------------|4-----------------|-------------------|
B  :----------------|4--------4----4---|-4-4-4----4----4-4-|

Db :----------------|------------------|-------------------|
Ab :----------------|------------------|-------------------|
E  :----------------|------------------|-----------------7-|
B  :----------------|-------7------7-8-|---7-8-10-7-8-10---|
Gb :----------------|6-9-10---9-10-----|10-----------------|
B  :----------------|------------------|-------------------|

E  :----------------|------------------|-------------------|
B  :----------------|------------------|-------------------|
Gb :----------------|------------------|-------------------|
B  :5-5-5-5-4-4-4-4-|4--------4----4---|-4-4-4----4----4-4-|
                                                           

============================================================================

Db :-------------------|----------------------|------------------------|
Ab :-------------------|----------------------|------------------------|
E  :-------------------|----------------------|------------------------|
B  :-------------------|----------------------|------------------------|
Gb :-------------------|------5----5----------|-0----------------------|
B  :4----4----4-4-4----|4-----5----5----------|-0-----------0-----0----|

Db :-------------------|--------8-11-14-11----|15-17-14-17----17----17-|
Ab :-------------------|-----10------------13-|------------16----15----|
E  :-----7-8----7-8-11-|8-11------------------|------------------------|
B  :8-10-----10--------|----------------------|------------------------|
Gb :-------------------|----------------------|------------------------|
B  :-------------------|----------------------|------------------------|

E  :-------------------|----------------------|------------------------|
B  :-------------------|----------------------|------------------------|
Gb :-------------------|----------------------|------------------------|
B  :4----4----4-4-4----|4-----5----5----------|-0-----------0-----0----|
                                                                       

============================================================================

Db :-------------------|----------------------------------------------|
Ab :-------------------|----------------------------------------------|
E  :-------------------|----------------------------------------------|
B  :-------------------|----------------------------------------------|
Gb :-------------------|----------------------------------------------|
B  :-0--0--0---0---0-0-|-0----------0----------0-----0------0---------|

Db :---17--------------|----14-17--14-----14--18--14-------14--17-14--|
Ab :-------------------|15-------------15--------------15-------------|
E  :15----14-----------|----------------------------------------------|
B  :-------------------|----------------------------------------------|
Gb :-------------------|----------------------------------------------|
B  :-------------------|----------------------------------------------|

E  :-------------------|----------------------------------------------|
B  :-------------------|----------------------------------------------|
Gb :-------------------|----------------------------------------------|
B  :-0--0--0---0---0-0-|-0----------0----------0-----0------0---------|
                                                                      

============================================================================

Db :--------------------------------------|-----------------|
Ab :--------------------------------------|-----------------|
E  :--------------------------------------|-----------------|
B  :--------------------------------------|-----------------|
Gb :------------------0-------------------|-1---------------|
B  :-0-----0----------0-------------------|-1-------1---1---|

Db :---17-20--17--------------------17-17-|20-------*-------|
Ab :19-----------19-------------19--------|-----------------|
E  :-----------------20--17-20------------|-----------------|
B  :--------------------------------------|-----------------|
Gb :--------------------------------------|-----------------|
B  :--------------------------------------|-----------------|

E  :--------------------------------------|-----------------|
B  :--------------------------------------|-----------------|
Gb :--------------------------------------|-----------------|
B  :-0-----0----------0-------------------|-1-------1---1---|
                                                            

============================================================================

Db :----------------|----------------|----------------|----------------|
Ab :----------------|----------------|----------------|----------------|
E  :----------------|----------------|----------------|----------------|
B  :----------------|----------------|----------------|----------------|
Gb :----------------|----------------|----4---4-------|0---------------|
B  :1-1-1---1---1-1-|1---1---1-1-1---|1---4---4-------|0-------0---0---|

Db :----------------|----------------|----------------|----------------|
Ab :----------------|----------------|----------------|----------------|
E  :----------------|----------------|----------------|----------------|
B  :----------------|----------------|----------------|----------------|
Gb :----------------|----------------|----------------|----------------|
B  :----------------|----------------|----------------|----------------|

E  :----------------|----------------|----------------|----------------|
B  :----------------|----------------|----------------|----------------|
Gb :----------------|----------------|----------------|----------------|
B  :1-1-1---1---1-1-|1---1---1-1-1---|1---4---4-------|0-------0---0---|
                                                                       

============================================================================

Db :----------------|----------------|----------------|
Ab :----------------|----------------|----------------|
E  :----------------|----------------|----------------|
B  :----------------|----------------|----------------|
Gb :----------------|----------------|--------5-------|
B  :0-0-0---0---0-0-|0---0---0-0-0---|0---0---7-------|

Db :----------------|----------------|----------------|
Ab :----------------|----------------|----------------|
E  :----------------|----------------|----------------|
B  :----------------|----------------|----------------|
Gb :----------------|----------------|----------------|
B  :----------------|----------------|----------------|

E  :----------------|----------------|----------------|
B  :----------------|----------------|----------------|
Gb :----------------|----------------|----------------|
B  :0-0-0---0---0-0-|0---0---0-0-0---|0---0---0-------|
                                                      

============================================================================

Db :--------------------------------|-------------------------------------|
Ab :--------------------------------|-------------------------------------|
E  :--------------------------------|-------------------------------------|
B  :--------------------------------|-------------------------------------|
Gb :1-------------------------------|-------------------------------------|
B  :1---------------1-------1-------|1----1----1--------1-------1----1----|

Db :--------------------------------|-------------------------------------|
Ab :--------------------------------|-------------7-8--10--8-7------------|
E  :--------5--7-8--7--5------------|---5---7--8----------------8--7---5--|
B  :4--5-7---------------7--5--4-5--|7------------------------------------|
Gb :--------------------------------|-------------------------------------|
B  :--------------------------------|-------------------------------------|

E  :--------------------------------|-------------------------------------|
B  :--------------------------------|-------------------------------------|
Gb :--------------------------------|-------------------------------------|
B  :1---------------1-------1-------|1----1----1--------1-------1----1----|
                                                                          

============================================================================

Db :---------------------------------------|
Ab :---------------------------------------|
E  :---------------------------------------|
B  :---------------------------------------|
Gb :---------------------------------------|
B  :1-------1---------1-----1-----1--------|

Db :--------------8--10--11---10--8--------|
Ab :-----7--8--10--------------------10-8--|
E  :7--8-----------------------------------|
B  :---------------------------------------|
Gb :---------------------------------------|
B  :---------------------------------------|

E  :---------------------------------------|
B  :---------------------------------------|
Gb :---------------------------------------|
B  :1-------1---------1-----1-----1--------|
                                           

============================================================================

Db :------------------------------------|----------------|----------------|
Ab :------------------------------------|----------------|----------------|
E  :------------------------------------|----------------|----------------|
B  :------------------------------------|----------------|----------------|
Gb :---------4----------4---------------|0---------------|----------------|
B  :1--------4----------4---------------|0-------0---0---|0-0-0---0---0-0-|

Db :---------8--10-11--10---------------|----------------|----------------|
Ab :7--8-10-----------------------------|----------------|----------------|
E  :------------------------------------|----------------|----------------|
B  :------------------------------------|----------------|----------------|
Gb :------------------------------------|----------------|----------------|
B  :------------------------------------|----------------|----------------|

E  :------------------------------------|----------------|----------------|
B  :------------------------------------|----------------|----------------|
Gb :------------------------------------|----------------|----------------|
B  :1--------4----------4---------------|0-------0---0---|0-0-0---0---0-0-|
                                                                          

============================================================================

Db :----------------|----------------|----------------|----------------|
Ab :----------------|----------------|----------------|----------------|
E  :----------------|----------------|----------------|----------------|
B  :----------------|----------------|--------2-------|----3-------4---|
Gb :----------------|--------0-------|0---1---2---1---|2---3---3---4---|
B  :0---0---0-0-0---|0---0---0-------|0---1-------1---|2-------3-------|

Db :----------------|----------------|----------------|----------------|
Ab :----------------|----------------|----------------|----------------|
E  :----------------|----------------|*---------------|----------------|
B  :----------------|----------------|----------------|----------------|
Gb :----------------|----------------|----------------|----------------|
B  :----------------|----------------|----------------|----------------|

E  :----------------|----------------|----------------|----------------|
B  :----------------|----------------|----------------|----------------|
Gb :----------------|----------------|----------------|----------------|
B  :0---0---0-0-0---|0---0---0-------|0---*-----------|----3---*---4---|
                                                                       

============================================================================

Db :----------------|----------------|----------------|----------------|
Ab :----------------|----------------|----------------|----------------|
E  :----------------|----------------|----------------|----------------|
B  :--------2-------|----3-------4---|--------2-------|----3-------4---|
Gb :0---1---2---1---|2---3---3---4---|0---1---2---1---|2---3---3---4---|
B  :0---1-------1---|2-------3-------|0---1-------1---|2-------3-------|

Db :----------------|----------------|----------------|----------------|
Ab :----------------|----------------|----------------|----------------|
E  :----------------|----------------|----------------|----------------|
B  :----------------|----------------|----------------|----------------|
Gb :----------------|----------------|----------------|----------------|
B  :----------------|----------------|----------------|----------------|

E  :----------------|----------------|----------------|----------------|
B  :----------------|----------------|----------------|----------------|
Gb :----------------|----------------|----------------|----------------|
B  :*---------------|----3---*---4---|0---1---2---1---|2---3---3---4---|
                                                                       

============================================================================

Db :----------------|----------------|----------------|----------------|
Ab :----------------|----------------|----------------|----------------|
E  :----------------|----------------|----------------|----------------|
B  :--------2-------|----3-------4---|--------2-------|----3-------4---|
Gb :0---1---2---1---|2---3---3---4---|0---1---2---1---|2---3---3---4---|
B  :0---1-------1---|2-------3-------|0---1-------1---|2-------3-------|

Db :----------------|----------------|----------------|----------------|
Ab :----------------|----------------|----------------|----------------|
E  :----------------|----------------|----------------|----------------|
B  :----------------|----------------|----------------|----------------|
Gb :----------------|----------------|----------------|----------------|
B  :----------------|----------------|----------------|----------------|

E  :----------------|----------------|----------------|----------------|
B  :----------------|----------------|----------------|----------------|
Gb :----------------|----------------|----------------|----------------|
B  :0---1---2---1---|2---3---3---4---|0---*-----------|----3---*---4---|
                                                                       

============================================================================

Db :----------------|----------------|----------------|----------------|
Ab :----------------|----------------|----------------|----------------|
E  :----------------|----------------|----------------|----------------|
B  :--------2-------|----3-------4---|--------2-------|----3-------4---|
Gb :0---1---2---1---|2---3---3---4---|0---1---2---1---|2---3---3---4---|
B  :0---1-------1---|2-------3-------|0---1-------1---|2-------3-------|

Db :----------------|----------------|----------------|----------------|
Ab :----------------|----------------|----------------|----------------|
E  :----------------|----------------|----------------|----------------|
B  :----------------|----------------|----------------|----------------|
Gb :----------------|----------------|----------------|----------------|
B  :----------------|----------------|----------------|----------------|

E  :----------------|----------------|----------------|----------------|
B  :----------------|----------------|----------------|----------------|
Gb :----------------|----------------|----------------|----------------|
B  :0---1---2---1---|2---3---3---4---|0---1---2---1---|2---3---3---4---|
                                                                       

============================================================================

Db :----------------|----------------|----------------|----------------|
Ab :----------------|----------------|----------------|----------------|
E  :----------------|----------------|----------------|----------------|
B  :--------2-------|----3-------4---|--------2-------|----3-------4---|
Gb :0---1---2---1---|2---3---3---4---|0---1---2---1---|2---3---3---4---|
B  :0---1-------1---|2-------3-------|0---1-------1---|2-------3-------|

Db :----------------|----------------|----------------|----------------|
Ab :----------------|----------------|----------------|----------------|
E  :----------------|----------------|----------------|----------------|
B  :----------------|----------------|----------------|----------------|
Gb :----------------|----------------|----------------|----------------|
B  :----------------|----------------|----------------|----------------|

E  :----------------|----------------|----------------|----------------|
B  :----------------|----------------|----------------|----------------|
Gb :----------------|----------------|----------------|----------------|
B  :0---1---2---1---|2---3---3---4---|0---1---2---1---|2---3---3---4---|
                                                                       

============================================================================

Db :----------------|----------------|----------------|----------------|
Ab :----------------|----------------|----------------|----------------|
E  :----------------|----------------|----------------|----------------|
B  :----------------|----------------|----------------|----------------|
Gb :2---3-------5---|3---6---5---3---|2---3-------5---|3---6---5---*---|
B  :0---1-------3---|1---4---3---1---|0---1-------3---|1---4---3---*---|

Db :----------------|----------------|----------------|----------------|
Ab :----------------|----------------|----------------|----------------|
E  :----------------|----------------|----------------|----------------|
B  :----------------|----------------|----------------|----------------|
Gb :----------------|----------------|----------------|----------------|
B  :----------------|----------------|----------------|----------------|

E  :----------------|----------------|----------------|----------------|
B  :----------------|----------------|----------------|----------------|
Gb :----------------|----------------|----------------|----------------|
B  :0---1-------3---|1---4---3---1---|0---1-------3---|1---4---3---*---|
                                                                       

============================================================================

Db :----------------|----------------|----------------|----------------|
Ab :----------------|----------------|----------------|----------------|
E  :----------------|----------------|----------------|----------------|
B  :----------------|----------------|----------------|----------------|
Gb :1---2-------3---|2---4---3---2---|1---2-------3---|2---4---3---*---|
B  :0---1-------3---|2---4---3---2---|0---1-------3---|2---4---3---*---|

Db :----------------|----------------|----------------|----------------|
Ab :----------------|----------------|----------------|----------------|
E  :----------------|----------------|----------------|----------------|
B  :----------------|----------------|----------------|----------------|
Gb :----------------|----------------|----------------|----------------|
B  :----------------|----------------|----------------|----------------|

E  :----------------|----------------|----------------|----------------|
B  :----------------|----------------|----------------|----------------|
Gb :----------------|----------------|----------------|----------------|
B  :0---1-------3---|2---4---3---2---|0---1-------3---|2---4---3---*---|
                                                                       

============================================================================

Db :----------------|----------------|----------------|----------------|
Ab :----------------|----------------|----------------|----------------|
E  :----------------|----------------|----------------|----------------|
B  :----------------|----------------|----------------|----------------|
Gb :2---3-------5---|3---6---5---3---|2---3-------5---|3---6---5---*---|
B  :0---1-------3---|1---4---3---1---|0---1-------3---|1---4---3---*---|

Db :----------------|----------------|----------------|----------------|
Ab :----------------|----------------|----------------|----------------|
E  :----------------|----------------|----------------|----------------|
B  :----------------|----------------|----------------|----------------|
Gb :----------------|----------------|----------------|----------------|
B  :----------------|----------------|----------------|----------------|

E  :----------------|----------------|----------------|----------------|
B  :----------------|----------------|----------------|----------------|
Gb :----------------|----------------|----------------|----------------|
B  :0---1-------3---|1---4---3---1---|0---1-------3---|1---4---3---*---|
                                                                       

============================================================================

Db :----------------|----------------|----------------|----------------|
Ab :----------------|----------------|----------------|----------------|
E  :----------------|----------------|----------------|----------------|
B  :----------------|----------------|----------------|----------------|
Gb :1---2-------3---|2---4---3---2---|1---2-------3---|2---4---3---*---|
B  :0---1-------3---|2---4---3---2---|0---1-------3---|2---4---3---*---|

Db :----------------|----------------|----------------|----------------|
Ab :----------------|----------------|----------------|----------------|
E  :----------------|----------------|----------------|----------------|
B  :----------------|----------------|----------------|----------------|
Gb :----------------|----------------|----------------|----------------|
B  :----------------|----------------|----------------|----------------|

E  :----------------|----------------|----------------|----------------|
B  :----------------|----------------|----------------|----------------|
Gb :----------------|----------------|----------------|----------------|
B  :0---1-------3---|2---4---3---2---|0---1-------3---|2---4---3---*---|
                                                                       

============================================================================

Db :----------------|----------------|----------------|----------------|
Ab :----------------|----------------|----------------|----------------|
E  :----------------|----------------|----------------|----------------|
B  :----------------|----------------|----------------|----------------|
Gb :2---3-------5---|3---6---5---3---|2---3-------5---|3---6---5---*---|
B  :0---1-------3---|1---4---3---1---|0---1-------3---|1---4---3---*---|

Db :----------------|----------------|----------------|----------------|
Ab :----------------|----------------|----------------|----------------|
E  :----------------|----------------|----------------|----------------|
B  :----------------|----------------|----------------|----------------|
Gb :----------------|----------------|----------------|----------------|
B  :----------------|----------------|----------------|----------------|

E  :----------------|----------------|----------------|----------------|
B  :----------------|----------------|----------------|----------------|
Gb :----------------|----------------|----------------|----------------|
B  :0---1-------3---|1---4---3---1---|0---1-------3---|1---4---3---*---|
                                                                       

============================================================================

Db :----------------|----------------|----------------|----------------|
Ab :----------------|----------------|----------------|----------------|
E  :----------------|----------------|----------------|----------------|
B  :----------------|----------------|----------------|----------------|
Gb :1---2-------3---|2---4---3---2---|1---2-------3---|2---4---3---*---|
B  :0---1-------3---|2---4---3---2---|0---1-------3---|2---4---3---*---|

Db :----------------|----------------|----------------|----------------|
Ab :----------------|----------------|----------------|----------------|
E  :----------------|----------------|----------------|----------------|
B  :----------------|----------------|----------------|----------------|
Gb :----------------|----------------|----------------|----------------|
B  :----------------|----------------|----------------|----------------|

E  :----------------|----------------|----------------|----------------|
B  :----------------|----------------|----------------|----------------|
Gb :----------------|----------------|----------------|----------------|
B  :0---1-------3---|2---4---3---2---|0---1-------3---|2---4---3---*---|
                                                                       

============================================================================

Db :----------------|----------------|----------------|----------------|
Ab :----------------|----------------|----------------|----------------|
E  :----------------|----------------|----------------|----------------|
B  :----------------|----------------|----------------|----------------|
Gb :2---3-------5---|3---6---5---3---|2---3-------5---|3---6---5---*---|
B  :0---1-------3---|1---4---3---1---|0---1-------3---|1---4---3---*---|

Db :----------------|----------------|----------------|----------------|
Ab :----------------|----------------|----------------|----------------|
E  :----------------|----------------|----------------|----------------|
B  :----------------|----------------|----------------|----------------|
Gb :----------------|----------------|----------------|----------------|
B  :----------------|----------------|----------------|----------------|

E  :----------------|----------------|----------------|----------------|
B  :----------------|----------------|----------------|----------------|
Gb :----------------|----------------|----------------|----------------|
B  :0---1-------3---|1---4---3---1---|0---1-------3---|1---4---3---*---|
                                                                       

============================================================================

Db :----------------|----------------|----------------|----------------|
Ab :----------------|----------------|----------------|----------------|
E  :----------------|----------------|----------------|----------------|
B  :----------------|----------------|----------------|----------------|
Gb :1---2-------3---|2---4---3---2---|1---2-------3---|2---4---3---*---|
B  :0---1-------3---|2---4---3---2---|0---1-------3---|2---4---3---*---|

Db :----------------|----------------|----------------|----------------|
Ab :----------------|----------------|----------------|----------------|
E  :----------------|----------------|----------------|----------------|
B  :----------------|----------------|----------------|----------------|
Gb :----------------|----------------|----------------|----------------|
B  :----------------|----------------|----------------|----------------|

E  :----------------|----------------|----------------|----------------|
B  :----------------|----------------|----------------|----------------|
Gb :----------------|----------------|----------------|----------------|
B  :0---1-------3---|2---4---3---2---|0---1-------3---|2---4---3---*---|
Добавлено: 06.12.2013
Другие материалы по этой песне:

Страница создана 06.12.2013
http://primanota.ru/pathology/imprisoned-by-fear-chords.htm
Привет, Гость.
Предлагаем пройти революционный курс по гитаре.
Подарок от PrimaNota.Ru, забирай!