PrimaNota.ru - самый крупный в мире бесплатный архив песенных текстов, аккордов, табулатур и нот


Patent Pending - Decemberween - текст песни, таба, бас-таба, видео

Регистрация Запомнить меня
Войти через:  Facebook Google Twitter Vk Yandex Mail.ru

Patent Pending - Decemberween - текст песни, таба, бас-таба, видео

Печатать
Просмотров: 219
Уроки эстрадного вокала в Санкт-Петербурге
-----------------------------------------------------------------
Decemberween - Patent Pending
-----------------------------------------------------------------
Tabbed Submitted by: JustALamb
*This Tab Was not written by me, but i wanted to share it since it is a great song.
You can thank Gaz (lilacwayliveson@hotmail.com) for this great tab!

The Chords pretty much repeat throughout the entire song, so its very easy to pick up on!

Tuning: Standard - EADGBE

Intro bit
e|-------3-----3------|
B|-----3---3---4------|
G|---4-------4-4------|
D|-5-----------5------|
A|--------------------|
E|--------------------|

Verse - Ska Upstrokes - Clean
e|-7-x-7-x-7--7-x-7--7-x-7-x-7--7-x-7--8-x-8-x-8--8-x-8---3-x-3-x-3--3-x-3-------------|
B|-7-x-7-x-7--7-x-7--7-x-7-x-7--7-x-7--8-x-8-x-8--8-x-8---3-x-3-x-3--3-x-3-------------|
G|-9-x-9-x-9--9-x-9--8-x-8-x-8--8-x-8--9-x-9-x-9--9-x-9---4-x-4-x-4--4-x-4-------------|        X 3
D|-9-x-9-x-9--9-x-9--9-x-9-x-9--9-x-9--10x-10x-10-10x-10--5-x-5-x-5--5-x-5-------------|
A|-7-x-7-x-7--7-x-7--9-x-9-x-9--9-x-9--10x-10x-10-10x-10--5-x-5-x-5--5-x-5-------------|
E|-7-x-7-x-7--7-x-7--7-x-7-x-7--7-x-7--8-x-8-x-8--8-x-8---3-x-3-x-3--3-x-3-------------|
It's a long long way December...

Last chord progression before the chorus - Clean
e|-7-x-7-x-7--7-x-7--7-x-7-x-7--7-x-7--8-x-8-x-8--8-x-8--------|
B|-7-x-7-x-7--7-x-7--7-x-7-x-7--7-x-7--8-x-8-x-8--8-x-8--------|
G|-9-x-9-x-9--9-x-9--8-x-8-x-8--8-x-8--9-x-9-x-9--9-x-9--------|
D|-9-x-9-x-9--9-x-9--9-x-9-x-9--9-x-9--10x-10x-10-10x-10--555--|
A|-7-x-7-x-7--7-x-7--9-x-9-x-9--9-x-9--10x-10x-10-10x-10--555--|
E|-7-x-7-x-7--7-x-7--7-x-7-x-7--7-x-7--8-x-8-x-8--8-x-8---333--|


Chorus - Distortion
e|--------------------|
B|--------------------|
G|-999----------------|       X 4
D|-999-999-101010-555-|
A|-777-999-101010-555-|
E|-----777-8-8-8--333-|

Play verse (Clean) again x 9

Before playing (leads into chorus) - Clean
e|-7-x-7-x-7--7-x-7--7-x-7-x-7--7-x-7--------------|
B|-7-x-7-x-7--7-x-7--7-x-7-x-7--7-x-7--------------|
G|-9-x-9-x-9--9-x-9--8-x-8-x-8--8-x-8--------------|
D|-9-x-9-x-9--9-x-9--9-x-9-x-9--9-x-9--101010-555--|
A|-7-x-7-x-7--7-x-7--9-x-9-x-9--9-x-9--101010-555--|
E|-7-x-7-x-7--7-x-7--7-x-7-x-7--7-x-7--8-8-8--333--|

Play Chorus (Distortion) Again X 4

Now we come to the interludey bit - Clean
e|----7-------7-------8------3----|
B|---7-7-----7-7-----8-8----3-3---|
G|--9---9---8---8---9---9--4---4--|  X 5
D|-9------9-------10------5-------|
A|--------------------------------|
E|--------------------------------|

e|----7-------7-------8--------|
B|---7-7-----7-7-----8-8-------|
G|--9---9---8---8---9---9------|
D|-9------9-------10------5555-|
A|------------------------3333-|
E|------------------------3333-|

Distortion
e|------------------------------------|
B|------------------------------------|
G|-999999-----------------------------|
D|-999999--999999-101010101010-555555-|
A|-777777--999999-101010101010-555555-|
E|---------777777-8-8-8-8-8-8--333333-|

e|-------------------------------|
B|-------------------------------|
G|-999999------------------------|
D|-999999--999999-101010101010-5-|
A|-777777--999999-101010101010-5-|
E|---------777777-8-8-8-8-8-8--3-|

"WOOO"

e|------------------------------------|
B|------------------------------------|
G|-999999-----------------------------|   X 8
D|-999999--999999-101010101010-555555-|
A|-777777--999999-101010101010-555555-|
E|---------777777-8-8-8-8-8-8--333333-|


e|--------------|      e|---|
B|--------------|      B|---|
G|-9~-----------| X 2  G|-9~|
D|-9~-9~-10~-5~-|      D|-9~|
A|-7~-9~-10~-5~-|      A|-7~|
E|----7~-8~~-3~-|      E|---|


e|----7-------7-------8------3----|
B|---7-7-----7-7-----8-8----3-3---|
G|--9---9---8---8---9---9--4---4--|  X 3
D|-9------9-------10------5-------|
A|--------------------------------|
E|--------------------------------|

e|----7-------7-------8---3--|
B|---7-7-----7-7-----8-8--3--|
G|--9---9---8---8---9---9-4--|  
D|-9------9-------10------5--|
A|---------------------------|
E|---------------------------|
Добавлено: 02.01.2016
Другие материалы по этой песне:
  • Аккорды и текст

Страница создана 14.04.2012
http://primanota.ru/patent-pending/decemberween-chords.htm
Привет, Гость.
Предлагаем пройти революционный курс по гитаре.
Подарок от PrimaNota.Ru, забирай!