PrimaNota.ru - самый крупный в мире бесплатный архив песенных текстов, аккордов, табулатур и нот


Patent Ochsner - Mittschiffs - таба, видео

Регистрация Запомнить меня
Войти через:  Facebook Google Twitter Vk Yandex Mail.ru

Patent Ochsner - Mittschiffs - таба, видео

Печатать
Просмотров: 61
Авторы музыки: Büne Huber
Авторы текста: Büne Huber
Mittschiffs by Patent Ochsner
from the Album Schlachtplatte
chords by Kaspar Giger  kg@kgmw.ch>


Mittschiffs
-----------

intro
e:---------------------------------
G:---------------------------------
B:-------2-0---------------2-4-5-4-
D:-----2-----3--0-2----0-3---------
A:-0-3--------------0--------------
E:---------------------------------

e:-----------------------------0-1-
G:-5-----------------------1-3-----
B:---5-4-2-4-5-4-2-----2-4---------
D:-----------------2-3-------------
A:---------------------------------
E:---------------------------------

e:-----4-5---------
G:3-5------4-5-3-5-
B:-----------------
D:-----------------
A:-----------------
E:-----------------


verse 1:
a
das wo ...

chöi nid ...
   d            E
es rägnet ...
a
du hesch ...
      d            E
"alte liebe ...
d                        a
& jitze ...
     H7               E
alti liebi ...

verse 2: same chords
     
Добавлено: 29.06.2013
Другие материалы по этой песне:
  • Аккорды и текст

Страница создана 29.06.2013
http://primanota.ru/patent-ochsner/mittschiffs-chords.htm
Привет, Гость.
Предлагаем пройти революционный курс по гитаре.
Подарок от PrimaNota.Ru, забирай!