PrimaNota.ru - самый крупный в мире бесплатный архив песенных текстов, аккордов, табулатур и нот


Pat Metheny - Extradition - аккорды и текст, таба, видео

Регистрация Запомнить меня
Войти через:  Facebook Google Twitter Vk Yandex Mail.ru

Pat Metheny - Extradition - аккорды и текст, таба, видео

Печатать
Просмотров: 149
Авторы: Pat Metheny

Extradition
Pat Metheny
		   t. See http://www..net/faq/ for more information.                     #
#-----------------------------------------------------------------------------#



This song is probably in 3/4 ,6/8 or drums in 2/2. Might need
to use octave effect, 1 8va, because there are some really high
notes on Pat's trumpet or sax charged synth axe. Or just hit pick
harmonics on high parts. Enjoy!

Cm(maj7)  x 3 5 4 4 3 |: Bbm7  6 x 6 6 6 x

Eb9  x 6 5 6 6 x   Ab#11  4 x 5 5 3 x

Ab7M    4 x 6 6 4 x   Gm7b13  3 x 3 3 4 x

Dsus4/A  x 0 5 5 3 5   D7#9  x 5 4 5 6 x

Gm  x 10 8 7 x x   Gm+5(Eb)  x 10 8 8 x x

Gm6  x 10 8 7 x x   Gm7  x 10 8 10 x x

Fm7  x 8 7 8 7 x   Fm9  x 8 7 8 8 x

Dbadd9  x 8 7 8 9 x   Bb#5  8 x 8 9 9 x

Eb6/9  x 6 5 5 6 x   D7#5#9  x 5 4 3 1 1

Gm9  x x 7 0 6 5   G   x x 9 0 8 7

Gsus4b9  x x 10 0 9 8    Db/A  x 0 11 10 9 9

Cmaj9  x 3 5 4 3 3 :|: C9  8 x 8 7 8 x

C6  8 x 9 8 9 x   Bbm/C  8 x 11 10 11 x

B/D  x x 0 8 7 7   G9  3 x 3 2 3 x

G6  3 x 5 4 5 x   Fm/G  3 x 6 5 6 x

A7#5  5 x 5 6 6 x :| Dno3rd/G  T3 x 0 2 3 5


 Intro
  8va         Cm(maj7)                           Bbm7
e------------------------------------------------------------------
B----------4-6-6b8---6b8-6b7r6p4---4-6b8-6b8----4-6b8-6--4b6-4-----
G--5p4-5p4-----------------------5------------5-----------------5--
D------------------------------------------------------------------
A------------------------------------------------------------------
E------------------------------------------------------------------

     Eb9      Ab#11  Ab7M     Dbsus2/G  Dsus4/A
e-------------66h8--s11---------------------------8----------------
B------44-6s8----------11b13-11b12-11--8b9r8--7b8----6b8-6b7r6p4---
G------------------------------------------------------------------
D--5p3-------------------------------------------------------------
A------------------------------------------------------------------
E------------------------------------------------------------------

         D7#9     Gm     3x           Fm7         3x       Bb#5
e---------------------------------8-10-10b11--10b11r10p8-----------
B----6b7-6b7r6~~s8--s10b11b10-p8--------------------------9--------
G--5---------------------------------------------------------------
D------------------------------------------------------------------
A------------------------------------------------------------------
E------------------------------------------------------------------

       Eb6/9              3x  D7#5#9  Gm9    G    Gsus4b9
e--10b11-10-----8-9-10-11-11b13---10------8----------7-7b8r7b8-7-8-
B-----------11----------------------101010---10b12-10---------------
G------------------------------------------------------------------
D------------------------------------------------------------------
A------------------------------------------------------------------
E------------------------------------------------------------------

          Db/A  G/C add6                             va     Bbm7
e--8b9r8b9---------------------------------------------------------
B---------------6h7p6-6--------------------------------------------
G----------6h8----------9-8-7--------------------------------------
D-----------------------------9p5-5---5-5---5-9p5--------15-17-18--
A-----------------------------------8-----8-------8p6--18----------
E------------------------------------------------------------------

                              (     very fast    Eb9
e----------------------------------------------------16------------
B-----------------------------------------14-16-18------18-16-15-16
G------------------------------12-15-16/17-------------------------
D------------------15-18-15/17-------------------------------------
A--16\15/16--16-18-------------------------------------------------
E------------------------------------------------------------------

        Ab#11          )                      Gm7b13   8va
e-------------------------------------13----18----15~~-------------
B--18-16---15------------13-----15-------15----18-----------15-16--
G-------17---17p15----------12-----15---------------------17-------
D-----------------17p15---------------------------------17---------
A------------------------------------------------------------------
E------------------------------------------------------------------


e------------------------------------------------------------------
B--18b20r18b20-----------------------------------------------------
G----------------17b19r17--17b19b20---17b19~~~~--------------------
D------------------------------------------------------------------
A------------------------------------------------------------------
E------------------------------------------------------------------

    va
e--22-21-20-19-----------20----------------------------------------
B----------------20/22--------22-21-20--------19-------------------
G----------------------------------------22--------20p19-----------
D------------------------------------------------------------------
A------------------------------------------------------------------
E------------------------------------------------------------------


e------------------------------22----18----------------------------
B---------------------19-22-22----22----20-20-22-19----------------
G---------------19-19--------------------------------19------------
D----22-20-22--------------------------------------------19--------
A------------------------------------------------------------------
E------------------------------------------------------------------

                Fm7
e------------------------------------------------------------------
B---------------------------------------19-20/21-19--21-20-19-18---
G-----17-----------------------17-19-20----------------------------
D--19----19-20--17\16/17-18-20-------------------------------------
A------------------------------------------------------------------
E------------------------------------------------------------------


e------------------------------------------------------------------
B-----------18-----------------------------------------------------
G--20-18/19----19-18-17----------------------------------17-19-20--
D-----------------------------------16/17-------17-18-20-----------
A-----------------------18-17-20-18-------18-20--------------------
E------------------------------------------------------------------

                             E6/9

e-----------16-17-18-17-16-------18--------------------------------
B--18-19-20----------------18/20----20-----------------------------
G--------------------------------------20-17-----------------------
D---------------------------------------------20p17----------------
A---------------------------------------------------18-------------
E-----------------------------------------------------------16-----


e------------------------------------------------------------------
B---------------------------18-20-21-20-19-18----------------------
G------------------17-19-20--------------------19-17-------------17
D---------16-18-20-----------------------------------20-19-19-20---
A---18-20----------------------------------------------------------
E------------------------------------------------------------------



e--------------------17-19~~---------------------------------------
B--------------18-20--------20p17-------18-------------------------
G--------17-19--------------------17/18----20--18\17/18--21-18-20--
D--19-20-----------------------------------------------------------
A------------------------------------------------------------------
E------------------------------------------------------------------


e------------------------------------------------------------------
B----19-18-------20------------------------------------------------
G--20------21-20----20p19p17h19-------------------------------16---
D-------------------------------21p17--17h18p17\16---17-18-20----17
A--------------------------------------------------19--------------
E------------------------------------------------------------------


e--------------------------------------15h16p15--------------------
B--------------------------15-16-17-19----------19-16-15-----------
G--17-16-15h17-------15--17------------------------------18-17-----
D--------------17-18-----------------------------------------------
A------------------------------------------------------------------
E------------------------------------------------------------------

                    8va
e--20p18-----------------------------------------------------------
B--------20p18---------------------------------------16h18h19h20---
G--------------20---------------------------15h16h17---------------
D----------------------------13h15h16h17h18------------------------
A-------------------13h14h15---------------------------------------
E------------------------------------------------------------------


e------------------------------------------------------------------
B--20p19p18p16--18p17p16p15---16p15--------------------------------
G------------------------------------17------16h18p15--------------
D-----------------------------------------19-----------19-18-17----
A------------------------------------------------------------------
E------------------------------------------------------------------


e------------------------------------------------------------------
B------------------------------------------------------------------
G-----------16h17b19r16--------------------------------------------
D--15-------------------19-17-----------------------------15b16~---
A-----18h19-------------------18-17----15h17h18p17p15--18----------
E-----------------------------------18-----------------------------

                                              va
e----------------------------------------------17------------21-18-
B-------------------------------------------------19~------19------
G--------------------------------------------------------19--------
D-----------15b16r15~----------15b16r15----------------20----------
A--18p15h18-----------18p15h18----------18-17----------------------
E------------------------------------------------------------------

                               Fm7                           8va
e--18b20-18b20r18-p15--------------15----16~16-18-18b20r18---------
B---------------------15--------16----16---------------------------
G------------------------17b19-------------------------------------
D------------------------------------------------------------17h18-
A------------------------------------------------------------------
E------------------------------------------------------------------

                 Bb7#5                                va  Eb6/9
e---------------------------------------------------------------22-
B--------16h18b20--16-15-------------------------------------22----
G--15h17-----------------17-16-15-------------------------20-------
D---------------------------------18-15h16h17-p16p15---------------
A-----------------------------------------------------18-----------
E------------------------------------------------------------------


e--18-------------------------------------------------------18~~~~-
B-----18-18~--------------18h20--------------18-19p18h19h21--------
G------------------17--20---------20p19h20-------------------------
D------------17h20-------------------------------------------------
A------------------------------------------------------------------
E------------------------------------------------------------------


e--18\17------------------------------------------------------------
B--------21p18-20p17-------17----------------------------17h20------
G--------------------19p17----19p17-------------17h19h20------------
D-----------------------------------17----17h20---------------------
A--------------------------------------20---------------------------
E-------------------------------------------------------------------


e--19p18p17-------17--------------------------------20-21b23r21--20-
B-----------20p17----20p19p18---------------------21----------------
G-----------------------------20p18\17-------18-22------------------
D--------------------------------------19h20------------------------
A-------------------------------------------------------------------
E-------------------------------------------------------------------



e--18----18-20------------------------------------------19h20h21h22
B-----22-------22p21p20-----19-----------------------20------------
G------------------------21-----------19-------19h20---------------
D------------------------------21p20~----21h22---------------------
A------------------------------------------------------------------
E------------------------------------------------------------------

                      6x                  8va
e--22p21p20p19---19-20-21-22-21-20--21b23--------------------------
B---------------------------------------------------------20b21r20-
G------------------------------------------20b22r20--2020----------
D------------------------------------------------------------------
A------------------------------------------------------------------
E------------------------------------------------------------------


e------------------------------18----------------------------------
B---------------20-21-18b20r18-----18------------------------------
G--20b22--20b22-----------------------20-19h20b22r20b22--20-19-17--
D----------------------------------------------------------------19
A------------------------------------------------------------------
E------------------------------------------------------------------


e------------------------------------------------------------------
B---------------------2020-18----18--------------------------------
G-----19----------------------20----20p17----17-19b20r19-19b20-----
D--22----22-21-20-17-----------------------------------------------
A-----------------------------------------18-----------------------
E------------------------------------------------------------------


e------------------------------------------------------------------
B------------------------------------------------------------------
G--20b22-17b19-------17-19-20--17b19r17----17----17----17b19r17----
D--------------20-20--------------------20----20----20-------------
A------------------------------------------------------------------
E------------------------------------------------------------------


e--------18-20~-18-------------------------------------------------
B-----20-----------20p18-------------------------------------------
G--19--------------------19-17b18r17-------------------------------
D------------------------------------20p17-------------------------
A------------------------------------------20p17-------------------
E------------------------------------------------20b21-20-18h20----


e------------------------------------------------------------------
B-----------------------------18-----------------------------------
G--------------------17h18h19----19-18p17----17-19-----------------
D--------17h19h20-19~---------------------20-------20-19-16-18-20--
A--17h20-----------------------------------------------------------
E------------------------------------------------------------------

                           va
e------------------------------------------------------------------
B------------------------------------------------------------------
G--17----------------------17h20-16h19/22--21-20-19----------------
D-----18-17-------17--------------------------------22-20-19-------
A-----------20-19----20--------------------------------------20----
E-----------------------20-----------------------------------------


e--------------------------18h19h20h21/22\21-----------------------
B-----------------19h20h21-------------------17h19-18--------------
G--------21p18-21-------------------------------------18b21r18-17--
D--18/19-----------------------------------------------------------
A------------------------------------------------------------------
E------------------------------------------------------------------

       {         2x                }
e-17---------------------------------------------------------------
B----18-----------------15h16h17h18-p17p16p15-18p17p16-19p18p16p15-
G---------------15h16h17-------------------------------------------
D------15h16h17----------------------------------------------------
A------------------------------------------------------------------
E------------------------------------------------------------------


e----------------------------------------17-------------19b20r19---
B----16h17h18p16-18p17h20p17-17h18h20h21----21p20p18p17------------
G-18---------------------------------------------------------------
D------------------------------------------------------------------
A------------------------------------------------------------------
E------------------------------------------------------------------

  3x up 1 fret each time  8va
e-----17h18h19-p18p17----------------------------------------------
B--20-----------------------------------------------16h17h18b20r18-
G---------------------------------------16h17h18h19----------------
D------------------------15h16h17h18/19----------------------------
A------------------------------------------------------------------
E------------------------------------------------------------------

                                                    back to Intro
e------------------------------------------------------------------
B-18b19-18-16------------------------------------------------------
G-------------17-15------------------------------------------------
D-------------------15b16-15-13-------------------------------13---
A-------------------------------15-13--------------------13-15--15~
E-------------------------------------15-14-13-11b13~/15-----------

  outro C9  C6  Bbm/C    B/D
e------------------------------------------------------------------
B------------------------------------------------------------------
G------------------------------------------------------------------
D------------------------------------------------------------------
A------------------------------------------------------------------
E------------------------------------------------------------------

   G9                  G6          Fm/G        A7#5
e-----15/17-17---17-20-19-19---17-19-20-20-19-20-21-21-------------
B------------------------------------------------------------------
G--19--------------------------------------------------------------
D------------------------------------------------------------------
A------------------------------------------------------------------
E------------------------------------------------------------------

   8va   C9   C6           Bbm/C           B/D   Dno3rd/G  va
e------------------------------------------------------------------
B--------------17-17--17--18-18--18-19-20b22r20-19-----------------
G----18-18--18-------------------------------------19--------------
D-----------------------------------------------------19--16b17----
A------------------------------------------------------------------
E------------------------------------------------------------------

e------------------------------------------------------------------
B------------------------------------------------------------------
G------------------------------------------------------------------
D------------------------------------------------------------------
A--17b18r17--15----------------------------------------------------
E---------------18--17b18r17--14b15r14~~~--------------------------

"You don't ____ to a metronome!"  Tori Amos     
Добавлено: 22.07.2013
Другие материалы по этой песне:
  • Аккорды и текст

Страница создана 30.06.2012
http://primanota.ru/pat-metheny/extradition-chords.htm
Привет, Гость.
Предлагаем пройти революционный курс по гитаре.
Подарок от PrimaNota.Ru, забирай!