PrimaNota.ru - самый крупный в мире бесплатный архив песенных текстов, аккордов, табулатур и нот


Pat Mcgee Band - Take The Long Way - аккорды и текст, видео

Регистрация Запомнить меня
Войти через:  Facebook Google Twitter Vk Yandex Mail.ru

Pat Mcgee Band - Take The Long Way - аккорды и текст, видео

Печатать
Просмотров: 116
Уроки эстрадного вокала в Санкт-Петербурге
Take The Long Way
Pat Mcgee Band
Take The Long Way
Artist: Pat McGee
Album: Pat McGee

Contributor: Daniel Schnall

Capo: 1 (all chords relative to capo)

Intro/Interlude
e|---0---0---|
B|---0---0---|
G|---1---2---|
D|---2---4---|
A|---2---4---|
E|---0---0---|

Verse
e|---0---2---0---0----------0---|
B|---0---3---2---0----------2---|
G|---1---2---2---1---6--4---2---|
D|---2---4---2---2---6--4---2---|
A|---2---2---0---2---4--2---0---|
E|---0---2-------0--------------|

Pre-Chorus ("I surround myself with people...")
e|---2-------|
B|---2---4---|
G|---2---4---|
D|---4---2---|
A|---4---2---|
E|---2-------|

Chorus "If you don't mind..."
e|---4-4---2-2---0-0---|
B|---5-5---3-3---2-1---|
G|---4-6---2-4---2-2---|
D|---6-6---4-4---2-2---|
A|---4-4---2-2---0-0---|
E|---4-4---2-2---------|
Добавлено: 26.12.2015
Другие материалы по этой песне:
  • Аккорды и текст

Страница создана 26.12.2015
http://primanota.ru/pat-mcgee-band/take-long-way-chords.htm
Привет, Гость.
Предлагаем пройти революционный курс по гитаре.
Подарок от PrimaNota.Ru, забирай!