PrimaNota.ru - самый крупный в мире бесплатный архив песенных текстов, аккордов, табулатур и нот


Pat Mcgee Band - Runaway - аккорды и текст, таба, видео

Регистрация Запомнить меня
Войти через:  Facebook Google Twitter Vk Yandex Mail.ru

Pat Mcgee Band - Runaway - аккорды и текст, таба, видео

Печатать
Просмотров: 104
Runaway
Pat Mcgee Band
** Big thanks to Todd Steinhauer for help with a couple troublesome sections
(tmsteinhauer@students.wisc.edu)

CAPO 2
* all chords relative to capo

Chords (Bsus and Asus2 are noted as B and A in the verses)

 E   Bsus4  Asus2   G    Ab
-0-  -0-    -0-   -3-   -0-|
-0-  -0-    -0-   -3-   -0-|
-1-  -4-    -2-   -0-   -1-|
-2-  -4-    -2-   -0-   -2-|
-2-  -2-    -0-   -2-   -x-|
-0-  -x-    -x-   -3-   -4-|


Intro

 E    F#    B    A   Ab  E
-0----------0-0--0-0--0--0-0---|
-0----------0-0--0-0--0--0-0---|
-9--9/11\9--4-4--2-2--1--1-1---|
-9----------4-4--2-2--2--2-2---|
-7--7/9-\7--2-2--0-0-----2-2---|
----------------------4--------|

 E    F#    B    A   Ab
-0----------0-0--0-0--0-------|
-0----------0-0--0-0--0-------|
-9--9/11\9--4-4--2-2--1-------|
-9----------4-4--2-2--2-------|
-7--7/9-\7--2-2--0-0----------|
----------------------4-------|

Repeat Line 1

 E    F#    B    A Ab    E
-0----------0-0--0--0----0------|
-0----------0-0--0--0----0------|
-9--9/11\9--4-4--2--1----1------|
-9----------4-4--2--2----2------|
-7--7/9-\7--2-2--0-------2------|
--------------------4----0------|

Verse 1

E             A         E
Gone away and hide your eyes
E                A     E
Stay for me with no disguise
E                     A
We should fall, still we can rise
       G          A        E (intro figure)
Lay it down, your heart, tonight

Verse 2
Try to imagine your soul set free
Let it go and run to me
You've got my heart, now take my life
Lay it down, my love

Chorus Figure

 E  Eb C# B  A     E
-------------------0---|
-------------------0---|
-9--8--6--4--2--2--1---|
-9--9--6--4--2--2--2---|   3x
-7--6--4--2--0--0--2---|
-------------------0---|


Chorus
Runaway, runaway, runaway to me
Runaway, darlin' won't you stay with me
Runaway, runaway, runaway to me
    A               B
Now I will back you up

Repeat Intro Figure (last 2 lines only)

Verse 3
You can hear the time slippin' away
You cry the tears for today
She screams come inside, but you can't stay
Lay it down, my love

Chorus
Runaway, runaway, runaway to me
Runaway, darlin' won't you stay with me
    A               B
Now I will back you up
     A               B
Hey, I will back you up
     A               B     E
Hey, I will back you up

Verse 4
Everyone's around us now
But still we only hear one sound
It's so intense, you just can't breathe
Lay it down, my love...

Repeat Chorus

Repeat intro figure to out.
Добавлено: 22.06.2012
Другие материалы по этой песне:
  • Аккорды и текст

Страница создана 22.06.2012
http://primanota.ru/pat-mcgee-band/runaway-chords.htm
Привет, Гость.
Предлагаем пройти революционный курс по гитаре.
Подарок от PrimaNota.Ru, забирай!