PrimaNota.ru - самый крупный в мире бесплатный архив песенных текстов, аккордов, табулатур и нот


Pat Mcgee Band - Rebecca - таба, видео

Регистрация Запомнить меня
Войти через:  Facebook Google Twitter Vk Yandex Mail.ru

Pat Mcgee Band - Rebecca - таба, видео

Печатать
Просмотров: 105
Rebecca
Artist: Pat McGee Band
Album: Shine

Contributor: Daniel Schnall
Thanks to O'Hara Hash for help w/intro

Capo: 2 (all chords relative to capo)


Intro
e|------0-----------0-----------0-----------0-0--|
B|--2p0---0-----2p0---0-----2p0---0-----2p0---0--|
G|--------1-----------1-----------1-----------1--|
D|--------2-----------2-----------2-----------2--|
A|--0-----0-----0-----0-----0-----0-----0--------|
E|-----------------------------------------------|

e|---------------------------------|
B|-2h3p2---2-----------------------|
G|-------4---4-2---2---------------|
D|---------------4---4-2---2-------|
A|-----------------------4---4-2-0-|
E|---------------------------------|


Verse
     A    E   F#m   D
e|---0----0----2----0----|
B|---2----0----2----3----|
G|---2----1----2----2----|
D|---2----2----4----0----|
A|---0----2----4---------|
E|--------0----2---------|


Chorus
     A    E    D    E
e|---0----0----0----0---|
B|---2----0----3----0---|
G|---2----1----2----1---|
D|---2----2----0----2---|
A|---0----2---------2---|
E|--------0---------0---|
(Chorus ends with D D instead of D E)
Добавлено: 06.03.2012
Другие материалы по этой песне:
  • Аккорды и текст

Страница создана 06.03.2012
http://primanota.ru/pat-mcgee-band/rebecca-chords.htm
Привет, Гость.
Предлагаем пройти революционный курс по гитаре.
Подарок от PrimaNota.Ru, забирай!