PrimaNota.ru - самый крупный в мире бесплатный архив песенных текстов, аккордов, табулатур и нот


Pat Mcgee Band - Passion - таба, видео

Регистрация Запомнить меня
Войти через:  Facebook Google Twitter Vk Yandex Mail.ru

Pat Mcgee Band - Passion - таба, видео

Печатать
Просмотров: 88
Passion
Artist: Pat McGee Band
Album: Revel

Contributor: Daniel Schnall

Capo: 2 (all chords relative to capo)


Intro/Chorus
e|---0----0----0----0----0----|
B|---0----0----0----0----0----|
G|---9----8----6----6----6----|
D|---9----9----7----6----7----|
A|---7----9----7----4----0----|
E|----------------------------|


Verse
e|---4----0----7----0---|
B|---5----0----9----0---|
G|---6----6----9----8---|
D|---6----7----9----9---|
A|---4----7----7----9---|
E|--------5---------7---|


Pre-Chorus
e|---0----0----0----0---|
B|---0----0----0----0---|
G|---1----2----4----6---|(x3)
D|---2----4----6----7---|
A|---2----4----6----0---|
E|---0------------------|

e|--0---------0--2--2h4--2--0h2--|
B|--0----0h2---------------------|
G|--4----------------------------|
D|--4----------------------------|
A|--2----------------------------|
E|-------------------------------|

Jam (after Verse 2 and Pre-Chorus)
e|--------------------------|
B|--------------------------|
G|--4--5--6-----4--5--6--9--|
D|--4--5--6-----4--5--6--9--|(x4)
A|--2--3--4-----2--3--4--7--|
E|--------------------------|
Добавлено: 10.03.2012
Другие материалы по этой песне:
  • Аккорды и текст

Страница создана 10.03.2012
http://primanota.ru/pat-mcgee-band/passion-chords.htm
Привет, Гость.
Предлагаем пройти революционный курс по гитаре.
Подарок от PrimaNota.Ru, забирай!