PrimaNota.ru - самый крупный в мире бесплатный архив песенных текстов, аккордов, табулатур и нот


Pat Martino - Phrasing - таба, видео

Регистрация Запомнить меня
Войти через:  Facebook Google Twitter Vk Yandex Mail.ru

Pat Martino - Phrasing - таба, видео

Печатать
Просмотров: 150
An important part of the way Pat plays is displayed in this piece; Am7 is the base with
some chromatic passing tones attached.

E|----------5-8-----------------------------------|
B|------5-8-----5-8-3--3--------------------------|
G|---5-7--------------5--5-2--5-2-----------------|
D|-7-------------------------5----5-2---2---------|
A|------------------------------------5---3---3---|
E|------------------------------------------5---3-|

E|----------------------------------5-7-8----------------------------|
B|--------------------------5-6-7-8------8-6-5-------------8---------|
G|--------------------5-7-5--------------------7-5-------5-----------|
D|--------5--5-7-5--5------------------------------7-5-7-------------|
A|----5-7--7------7--------------------------------------------------|
E|-5-8---------------------------------------------------------------|

E|-----5----------------------------5-7-8-7-5---5-8-7-8-7-5---8---|
B|---5---5---------------54-54-----5----------8-------------8---8-|
G|---------7---5----5-7-5-----7-5-2-------------------------------|
D|-----------5---5-7----------------------------------------------|
A|----------------------------------------------------------------|
E|----------------------------------------------------------------|

E|-10-8-10-10-12-13-10-12-10---------------8-10-8---8-10-8----------------------|
B|--------------------------10------------8-------10-------10-8-10-8--8-10-8----|
G|----------------------------10\9-12-9-10---------------------------9-------9--|
D|------------------------------------------------------------------------------|
A|------------------------------------------------------------------------------|
E|------------------------------------------------------------------------------|

E|-----5-----------------5-----8---5-8-5---8-----------|
B|---5---8-5-----------8---8-8---8-------8-------------|
G|-7---------8-7-5-7-5---------------------------------|
D|-----------------------------------------------------|
A|-----------------------------------------------------|
E|-----------------------------------------------------|


E|---13-12-13/15-10-8------------------------8-10-8---8-10-8---8-10-8-----------|
B|-10----------------8----------------------8------10-------10-------10-8-10-8--|
G|--------------------9--------------------9----------------------------------9-|
D|---------------------10---10-7-----7-9/10-------------------------------------|
A|-----------------------10------7-10-------------------------------------------|
E|------------------------------------------------------------------------------|

E|-5---------------------------------------------------5-8-5---------|
B|---5-8-8---5-------------------------5-6-5---------5------8-5------|
G|---------7---5-7---5-7-----5-7-4-5-7-------7-5---5-----------7-5---|
D|-----------------7-----5-7---------------------7-------------------|
A|-------------------------------------------------------------------|
E|-------------------------------------------------------------------|
Добавлено: 31.03.2012
Вам также может быть интересно:
Другие материалы по этой песне:
  • Аккорды и текст

Страница создана 31.03.2012
http://primanota.ru/pat-martino/phrasing-chords.htm
Привет, Гость.
Предлагаем пройти революционный курс по гитаре.
Подарок от PrimaNota.Ru, забирай!