PrimaNota.ru - самый крупный в мире бесплатный архив песенных текстов, аккордов, табулатур и нот


Passion - The Lord Our God - таба, видео

Регистрация Запомнить меня
Войти через:  Facebook Google Twitter Vk Yandex Mail.ru

Passion - The Lord Our God - таба, видео

Печатать
Просмотров: 132
Уроки эстрадного вокала в Санкт-Петербурге
-----[The Lord Our God by Passion]-----

This Song is Capo 5 

Notes: 
Verse is just some reverb nice and ambient.
 In the chorus and bridge crank up the distortion for a nice big sound :D. 
For timing, listen to the song it is pretty prominent.

Thank you for looking at my tab! I hope it helps any other Worship musicians out there.
Have a good one.

Order:Intro, Verse 1, Chorus, Verse 2, Chorus, Bridge, Chorus, Tag x2, Intro 
Intro
e|----------------------------------------------------------------------------------------------------------|
B|----------------------------------------------------------------------------------------------------------|  
G|---------0-----------0-----------0---------------0------------0-----------0-----------0---------------0---|
D|-5-5-5-5---5-5-5-5-5---5\2-2-2-2---2/10-10-10-10---10\5-5-5-5---5-5-5-5-5---5\2-2-2-2---2/10-10-10-10---10|
A|----------------------------------------------------------------------------------------------------------|
E|----------------------------------------------------------------------------------------------------------|

Verse:
e|----------------------------------------------------------------------------------------------------------|
B|----------------------------------------------------------------------------------------------------------|
G|---------0-----------0-----------0-----------0-----------0---------------0------------0-------------------|
D|-5-5-5-5---5-5-5-5-5---5-5-5-5-5---5-5-5-5-5---5\2-2-2-2---2/10-10-10-10---10\5-5-5-5---5-5-5-5-5---------|
A|----------------------------------------------------------------------------------------------------------|
E|----------------------------------------------------------------------------------------------------------|

e|----------------------------------------------------------------------------------------------------------|
B|----------------------------------------------------------------------------------------------------------|
G|---------0-----------0-----------0-----------0-----------0---------------0------------0-----------0-------|
D|-5-5-5-5---5-5-5-5-5---5-5-5-5-5---5-5-5-5-5---5\2-2-2-2---2/10-10-10-10---10\5-5-5-5---5-5-5-5-5---5\2-2-|
A|----------------------------------------------------------------------------------------------------------|
E|----------------------------------------------------------------------------------------------------------|

e|----------------------------------------------------------------------------------------------------------|
B|----------------------------------------------------------------------------------------------------------|
G|-----0---------------0------------0-----------0-----------0---------------0------------0-----------0------|
D|-2-2---2/10-10-10-10---10\5-5-5-5---5-5-5-5-5---5\2-2-2-2---2/10-10-10-10---10\5-5-5-5---5-5-5-5-5--------|
A|----------------------------------------------------------------------------------------------------------|
E|----------------------------------------------------------------------------------------------------------|

Chorus
e|----------------------------------------------------------------------------------------------------------|
B|------------0-1/8v8v8v-----------0-1/8v8v8v------------0-1/8v8v8v------------0-1/8v8v8v-------------------|
G|-0-2/7v7v7v------------02/7v7v7v------------0-2/7v7v7v------------0-2/7v7v7v------------------------------|
D|----------------------------------------------------------------------------------------------------------| 
A|----------------------------------------------------------------------------------------------------------| 
E|----------------------------------------------------------------------------------------------------------|

Bridge
e|----------------------------------------------------------------------------------------------------------|
B|----------------------------------------------------------------------------------------------------------|
G|----------------------------------------------------------------------------------------------------------|
D|-5-5-5-5---5-5-5-5-5---5\2-2-2-2---2/10-10-10-10---10\5-5-5-5---5-5-5-5-5---5\2-2-2-2---2/10-10-10-10-----|
A|----------------------------------------------------------------------------------------------------------|
E|----------------------------------------------------------------------------------------------------------|

e|----------------------------------------------------------------------------------------------------------|
B|----------------------------------------------------------------------------------------------------------|
G|----------------------------------------------------------------------------------------------------------|
D|-5-5-5-5---5-5-5-5-5---5\2-2-2-2---2/10-10-10-10---10\5-5-5-5---5-5-5-5-5---5\2-2-2-2---2/10-10-10-10-----|
A|----------------------------------------------------------------------------------------------------------|
E|----------------------------------------------------------------------------------------------------------|

e|----------------------------------------------------------------------------------------------------------|
B|----------------------------------------------------------------------------------------------------------|
G|----------------------------------------------------------------------------------------------------------|
D|-5-5-5-5---5-5-5-5-5---5\2-2-2-2---2/10-10-10-10---10\5-5-5-5---5-5-5-5-5---5\2-2-2-2---2/10-10-10-10-----|
A|----------------------------------------------------------------------------------------------------------|
E|----------------------------------------------------------------------------------------------------------|

e|----------------------------------------------------------------------------------------------------------|
B|----------------------------------------------------------------------------------------------------------|
G|----------------------------------------------------------------------------------------------------------|
D|-5-5-5-5-5-5-5-5-5-5-5-5-5-5-5-5-2-2-2-2-2-2-2-2-10-10-10-10-10-10-10-10-10-10-10-10-10-10-10-10----------|
A|----------------------------------------------------------------------------------------------------------|
E|----------------------------------------------------------------------------------------------------------|

e|----------------------------------------------------------------------------------------------------------|
B|----------------------------------------------------------------------------------------------------------|
G|----------------------------------------------------------------------------------------------------------|
D|-12-12-12-12-12-12-12-12-12-12-12-12-12-12-12-12----------------------------------------------------------|
A|----------------------------------------------------------------------------------------------------------|
E|----------------------------------------------------------------------------------------------------------|

The Tag is just the riff of the chorus repeated until the intro end.

Transitions between the Chorus and Bridge is the Chorus riff a couple times.

The transitions between chorus and verse is:

e|----------------------------------------------------------------------------------------------------------|
B|----------------------------------------------------------------------------------------------------------| 
G|---------0-----------0-----------0-----------0------------------------------------------------------------| 
D|-5-5-5-5---5-5-5-5-5---5-5-5-5-5---5-5-5-5-5--------------------------------------------------------------| 
A|----------------------------------------------------------------------------------------------------------| 
E|----------------------------------------------------------------------------------------------------------| 

Добавлено: 25.04.2016
Другие материалы по этой песне:
  • Аккорды и текст

Страница создана 25.04.2016
http://primanota.ru/passion/lord-our-god-chords.htm
Привет, Гость.
Предлагаем пройти революционный курс по гитаре.
Подарок от PrimaNota.Ru, забирай!