PrimaNota.ru - самый крупный в мире бесплатный архив песенных текстов, аккордов, табулатур и нот


Passion - Cater 2 You - таба, видео

Регистрация Запомнить меня
Войти через:  Facebook Google Twitter Vk Yandex Mail.ru

Passion - Cater 2 You - таба, видео

Печатать
Просмотров: 113
----------------------------------------------------------------------------
                             Cater to You - Passion
----------------------------------------------------------------------------


Tabbed by: Mike B./Kulang

Tuning: capo 4th fret

A lot of tabs here are really similar.. but i wanted to post one of my own.


 Intro
e|------------3------------------------------------------------------------|
B|----------5------------2h3-------0h1-----------1h3p1---------------------|
G|--------4--------------2---------0-------------------0-------------------|
D|------5----------------2h4-------0h2--------2-------------2--------------|
A|----3------------------2---------0---------------------------------------|
E|-------------------------------------------------------------------------|

e|---------------------------------------------2h5p2-----------------------|
B|-------------------------------3-------------------3h5p3-----------------|
G|-------------------------2-------------------------------------2---------|
D|-------------------4-----------------------------------------------4-----|
A|---0------1/2------------------------------------------------------------|
E|-------------------------------------------------------------------------|

e|-------------------------------------------------------------------------|
B|-----0-------------------0-------------2h3-------------------------------|
G|-----0-------------0-------------------2---------------------------------|
D|-----0-------0-------------------------2h4-------------------------------|
A|---------------------------------------2---------------------------------|
E|-----0-------------------------------------------------------------------|

e|-------------------------------------------------------------------------|
B|------------------------------3h5---------3h5--------3h5-----------------|
G|----4-------------------------4-----------4----------4-------------------|
D|-----------------5-------------------------------------------------------|
A|-----------3-------------------------------------------------------------|
E|-------------------------------------------------------------------------|

e|-------------------------------------------------------------------------|
B|-----2h3-------------0h1----------------1h3p1----------------------------|
G|-----2---------------0----------------------------0----------------------|
D|-----2h4-------------0h2------------2-------------------2----------------|
A|-----2---------------0---------------------------------------------------|
E|-------------------------------------------------------------------------|

e|--------------------------------------------2h5p2------------------------|
B|-----------------------------------3----------------3--------------------|
G|-------------------------------2-----------------------2-----------------|
D|---------------------------4------------------------------4--------------|
A|---0-----1----1/2--------------------------------------------------------|
E|-------------------------------------------------------------------------|

e|-------------------------------------------------------------------------|
B|-----0-------------0---------3-------------------------------------------|
G|-----0----------0------------2-------------------------------------------|
D|-----0-------0---------------4-------------------------------------------|
A|-----------------------------2-------------------------------------------|
E|-----0-------------------------------------------------------------------|


 Verse I
e|---------------------3---------------------------------------x-----------|
B|-----------------5----------------2h3---------0h1----------1-x-----------|
G|--------------4-------------------2-----------0------------0-x-----------|
D|----------5-----------------------2h4---------0h2----------2-x-----------|
A|------3---------------------------2-----------0--------------x-----------|
E|-------------------------------------------------------------x-----------|

e|---------------------------------2h5p2-----------------------------------|
B|---------------------------3----------------3---------0------0-----------|
G|----------------------2------------------------2------0----------0-------|
D|-----------------4-------------------------------4----0------------------|
A|--1--1/2-----------------------------------------------------------------|
E|------------------------------------------------------0------------------|


e|-------------------------------------------------------------------------|
B|-------------------------------------------------------------------------|
G|---------2---------------------------------------------------------------|
D|------4------------------------------------------------------------------|
A|---2---------------------------------------------------------------------|
E|-------------------------------------------------------------------------|

add a little variations and you're good.


| /  slide up
| h  hammer-on
| p  pull-off
| x  tap
Добавлено: 18.04.2012
Другие материалы по этой песне:
  • Аккорды и текст

Страница создана 18.04.2012
http://primanota.ru/passion/cater-2-you-chords.htm
Привет, Гость.
Предлагаем пройти революционный курс по гитаре.
Подарок от PrimaNota.Ru, забирай!