PrimaNota.ru - самый крупный в мире бесплатный архив песенных текстов, аккордов, табулатур и нот


Passepied - New Music Machine - таба, видео

Регистрация Запомнить меня
Войти через:  Facebook Google Twitter Vk Yandex Mail.ru

Passepied - New Music Machine - таба, видео

Печатать
Просмотров: 42
e|------------------|
b|-8-8-888-4-44-444-|
G|-7-7-777-5-55-555-|
D|-5-5-555-3-33-333-| x4
A|-6-6-666-3-33-333-|
E|------------------|

e|----------------------------------------------|
b|-7----------7-77-7-77-77-777-7-77-7-77-77-777-|
G|-8----------8-88-8-88-88-888-8-88-8-88-88-888-|
D|-6----------6-66-6-66-66-666-6-66-6-66-66-666-|
A|----------------------------------------------|
E|----------------------------------------------|

I don't think the guitar plays in the next section, 
but here are the chords anyway.

e|----------------|
b|-8-----4--------|
G|-8-----5--------|
D|-8-----5--------| x4
A|-6-----3--------|
E|----------------|

e|------------------------------------|
b|-8----6----5----4----3----2----5----|
G|-8----6----4----4----2----2----5----|
D|-8----6----6----4----4----2----5----|
A|-6----4----4----2----2----0----3----|
E|------------------------------------|

guitar back in

e|----------------------------------|
b|-10101010101010101010101010101010-|
G|-9-9-9-9-9-9-9-9-9-9-9-9-9-9-9-9--|
D|-11111111111111111111111111111111-|
A|-9-9-9-9-9-9-9-9-9-9-9-9-9-9-9-9--|
E|----------------------------------|

e|----------------------|-------------------|
b|-9-99-101010-9-99-999-|-5-55-555-5-55-555-|
G|-9-99-9-9-9--9-99-999-|-5-55-555-5-55-555-|
D|-7-77-7-7-7--7-77-777-|-5-55-555-5-55-555-| x2
A|----------------------|-------------------|
E|------- x3 -----------|-------------------|

e|------------------|
b|-9-9-999-5-55-555-|
G|-8-8-888-6-66-666-|
D|-6-6-666-4-44-444-| x4
A|-7-7-777-4-44-444-|
E|------------------|

e|--------------|
b|-8--7--8--10--|
G|--------------|
D|--------------| x8
A|--------------|
E|--------------|

e|----------------------|-------------------|
b|-9-99-101010-9-99-999-|-5-55-555-5-55-555-|
G|-9-99-9-9-9--9-99-999-|-5-55-555-5-55-555-|
D|-7-77-7-7-7--7-77-777-|-5-55-555-5-55-555-| x2
A|----------------------|-------------------|
E|------- x3 -----------|-------------------|

e|-------------------------------|
b|-5-----------------------------|
G|-5-(strum this chord for ages)-|
D|-5-----------------------------|
A|-------------------------------|
E|-------------------------------|

This is played by the keyboard half way through, but It's a cool riff, so...

e|----------------|
b|-9--------------|
G|--------11------|
D|----11------11--|
A|----------------|
E|----------------|

e|----------------------------------------|
b|----------------------------------------|
G|----------------------------------------|
D|-9-9-999-5-55-555-9-9-999-5-55-55555555-|
A|-7-7-777-3-33-333-7-7-777-3-33-33333333-|
E|-7-7-777-3-33-333-7-7-777-3-33-33333333-|
Добавлено: 08.10.2015
Другие материалы по этой песне:
  • Аккорды и текст

Страница создана 08.10.2015
http://primanota.ru/passepied/new-music-machine-chords.htm
Привет, Гость.
Предлагаем пройти революционный курс по гитаре.
Подарок от PrimaNota.Ru, забирай!