PrimaNota.ru - самый крупный в мире бесплатный архив песенных текстов, аккордов, табулатур и нот


Passepied - Matatabistep - бас-таба, видео

Регистрация Запомнить меня
Войти через:  Facebook Google Twitter Vk Yandex Mail.ru

Passepied - Matatabistep - бас-таба, видео

Печатать
Просмотров: 38
Уроки эстрадного вокала в Санкт-Петербурге
-------------------------------------------------------------------------------
                            パスピエ- MATATABISTEP
-------------------------------------------------------------------------------


Tuning: Standard

G|------------------------------------|
D|------------------------------------|
A|-5~--7-9-11-13-9-5-7-9-5------------|
E|------------------------------------|

   This Part is slapped:
G|-77---4-4-------9-9-------| x4
D|-----------44-------------|
A|5--5-2-2-------7-7--------|        Bridge
E|----------2--2------------|

G|-------------------------| x3    |
D|-------------------------|       |
A|\5/--575--797---97---5~7-|       |
E|---------------7----7----|       | 
                                   | Chorus
G|-------------------|             |
D|-------------------|             |
A|575----------------|             |
E|-----0~--000000----|             |

G|--7-7-7-7---------------------9-9-9-9--7-7-7-7--------------------4-4-4------------|
D|-----------7-7-7-7--4-4-4-4---------------------7-7-7-7--4-4-4-4-------------------|
A|-5-5-5-5---------------------7-7-7-7--5-5-5-5--------------------2-2-2-2/~--9------|
E|----------5-5-5-5--2-2-2-2---------------------5-5-5-5--2-2-2-2--------------------|


G|-77---4-4-------9-9-------| x4
D|-----------44-------------|
A|5--5-2-2-------7-7--------|        Bridge
E|----------2--2------------|

G|-------------------------| x3    |
D|-------------------------|       |
A|\5/--575--797---97---5~7-|       |
E|---------------7----7----|       | 
                                   | Chorus
G|-------------------|             |
D|-------------------|             |
A|575----------------|             |
E|-----0~--000000----|             |

G|--7-7-7-7---------------------9-9-9-9--7-7-7-7--------------------4-4-4------------|
D|-----------7-7-7-7---4-4-4-4--------------------7-7-7-7--4-4-4-4-------------------|
A|-5-5-5-5---------------------7-7-7-7--5-5-5-5--------------------2-2-2-2/~--9------|
E|----------5-5-5-5---2-2-2-2--------------------5-5-5-5--2-2-2-2--------------------|


| /  slide up
| \  slide down
| h  hammer-on
| p  pull-off
| ~  vibrato
| +  harmonic
| x  Mute note
===============================================================================
Добавлено: 08.10.2015
Другие материалы по этой песне:
  • Аккорды и текст

Страница создана 08.10.2015
http://primanota.ru/passepied/matatabistep-chords.htm
Привет, Гость.
Предлагаем пройти революционный курс по гитаре.
Подарок от PrimaNota.Ru, забирай!