PrimaNota.ru - самый крупный в мире бесплатный архив песенных текстов, аккордов, табулатур и нот


Passepied - Magnetic - таба, видео

Регистрация Запомнить меня
Войти через:  Facebook Google Twitter Vk Yandex Mail.ru

Passepied - Magnetic - таба, видео

Печатать
Просмотров: 23
Passepied - Magnetic (Second song off the 'Fever' mini album).

Guitar 2 is all palm muted.

    e|------------------------------|
    b|----5-----------5-------------|
GTR G|-8-----------8-------4--------|
 1  D|------------------------------| x6
    A|------------------------------|
    E|------------------------------|

    e|-----------------------------------------------------------------|
    b|-------------------------------------------------------2---------|
GTR G|-----1-2-1-----------1-2-1---------------------------4---4-------|
 2  D|---2-------2---2---2-------2---2-----2-4-2---------2-------6-----|
    A|-0---------------0-----------------4-------4---4-------------4-2-|
    E|-------------4---------------4---2-----------2---4---------------|

GTR 2 may even be the bass, It's quite hard to tell.

Piano chords (no guitar)

e|-----------4------------------------------|
b|-2----4----5---------2----4----5----7--5--|
G|-2----4----4----1----2----4----6----4--4--|
D|-2----4----6----2----2----4----6----6--6--|
A|-0----2----7----2----0----2----4----4--4--|
E|-----------4----0-------------------------|

e|-4h5h7-4h5h7-4h5h7-4/5h7h9p7p5----------------------------------------2/4h5h7p5p4-4-2-2-2----|
b|-------------------------------9-5h7h9-5h7h9-5/7h9h10p9p7\5--2h4h5-2-------------------------|
G|---------------------------------------------------------------------------------------------|
D|---------------------------------------------------------------------------------------------|
A|---------------------------------------------------------------------------------------------|
E|---------------------------------------------------------------------------------------------|

e|-----------------------------------------|
b|-2----4----2----4----2----4----2----4----|
G|-2----4----2----4----2----4----2----4----|
D|-2----6----4----6----2----6----4----6----| strum all except last chord which stops dead.
A|-0----6----4----6----0----6----4----6----|
E|------4----2----4---------4----2----4----|

    e|------------------------------|
    b|----5-----------5-------------|
GTR G|-8-----------8-------4--------|
 1  D|------------------------------| x2
    A|------------------------------|
    E|------------------------------|

    e|-----------------------------------------------------------------|
    b|-------------------------------------------------------2---------|
GTR G|-----1-2-1-----------1-2-1---------------------------4---4-------|
 2  D|---2-------2---2---2-------2---2-----2-4-2---------2-------6-----| x2
    A|-0-----------0---------------------4-------4---4-------------4-2-|
    E|-----------------4-----------4---2-----------2---4---------------|

    e|-----------------------------------------------------------------|
    b|-------------------------------------------------------2---------|
GTR G|-----1-2-1-----------1-2-1---------------------------4---4-------|
 2  D|---2-------2---2---2-------2---2-----2-4-2---------2-------6-----| x2
    A|-0-----------0---------------------4-------4---4-------------4-2-|
    E|-----------------4-----------4---2-----------2---4---------------|

e|------------------------------------------|
b|------------------------------------------|
G|-9----------------------------------------|
D|----11-----------9BDBU-----------9BDBU----|
A|-----------11h12-------12--11h12-------12-|
E|------------------------------------------|

e|-----------------------------------------|
b|-----------------------------------------|
G|-9---------------9-9--9--9--9--9-9-9--9--|
D|----11-----------1111-11-11-11-111111-11-|
A|-----------11h12-1212-12-12-12-111111-12-|
E|-----------------------------------------|

Just piano for a few bars, then...

e|-12--9-12-9----------9-12-9----------9----|
b|------------10----10--------10----10---10-|
G|---------------11--------------11---------|
D|------------------------------------------|
A|------------------------------------------|
E|------------------------------------------|

e|-12--9-12-9----------9-12-9----------9-12-|
b|------------10----10--------10----10------|
G|---------------11--------------11---------|
D|------------------------------------------|
A|------------------------------------------|
E|------------------------------------------|


e|-12-11-9---------------------9-10-|
b|---------12-10-9-10-12-10-12------|
G|----------------------------------|
D|----------------------------------| this bit is sketchy at best.
A|----------------------------------|
E|----------------------------------|

e|-5----4----2---------2---4-----------12---|
b|-5----5----2---------3---5---7---9---12---|
G|-6----4----2----1----4---6---7---9---9----|
D|-7----6----4----2----4---6---7---9---9----|
A|-7----7----4----2----2---4---5---7---7----|
E|-5----4----2----0-------------------------|

e|-5----4----2---------2---------|
b|-5----5----2---------3---------|
G|-6----4----2----1----4----1----|
D|-7----6----4----2----4----2----|
A|-7----7----4----2----2----2----|
E|-5----4----2----0---------0----|

Just Piano

e|-5----4---------2----|
b|-5----5----2----2----|
G|-6----4----2----3----|
D|-7----6----2----2----|
A|-7----7----4---------|
E|-5----4--------------|

Guitar joins in

e|--2---4----------12---|
b|--3---5---7---9--12---|
G|--4---6---7---9--9----|
D|--4---6---7---9--9----|
A|--2---4---5---7--7----|
E|----------------------|

e|-2---4----------5-----------------|
b|-3---5---7---9--6-----------------|
G|-4---6---7---9--7-----------------|
D|-4---6---7---9--7-----------------|
A|-2---4---5---7--5-----------------|
E|----------------5-----------------|

    e|------------------------------|
    b|----5-----------5-------------|
GTR G|-8-----------8-------4--------|
 1  D|------------------------------| 
    A|------------------------------|
    E|------------------------------|

    e|-----------------------------------------------------------------|
    b|-------------------------------------------------------2---------|
GTR G|-----1-2-1-----------1-2-1---------------------------4---4-------|
 2  D|---2-------2---2---2-------2---2-----2-4-2---------2-------6-----|
    A|-0-----------0---------------------4-------4---4-------------4-2-|
    E|-----------------4-----------4---2-----------2---4---------------|

    e|------------------------------|
    b|----5-------------------------|
GTR G|-8----------------------------|
 1  D|------------------------------| 
    A|------------------------------|
    E|------------------------------|

    e|-----------------------------------------------------|
    b|-----------------------------------------------------|
GTR G|-----1-2-1-----------1-2-1---------------------------|
 2  D|---2-------2---2---2-------2---2-----2-4-2-----------|
    A|-0-----------0---------------------4-------4---4-----|
    E|-----------------4-----------4---2-----------2---4-4-|
Добавлено: 08.10.2015
Вам также может быть интересно:
Другие материалы по этой песне:
  • Аккорды и текст

Страница создана 08.10.2015
http://primanota.ru/passepied/magnetic-chords.htm
Привет, Гость.
Предлагаем пройти революционный курс по гитаре.
Подарок от PrimaNota.Ru, забирай!